Month: September 2011

Ducktales Tv Theme tab

Vocal track arranged for guitar
Tabbed by: Alexander Craig

Tuning: EADGBe

e|---------------------------------------------------------------|
B|-------3-2-2-3-------------------------------------------------|
G|---1-4---------4-2---2-1---2-1---------------------------------|
D|-2-------------------------------------------------------------|
A|---------------------------------------------------------------|
E|---------------------------------------------------------------|

e|---------------------------------------------------0-2-4\2-0---|
B|-------3-2-2-3-------3-2---3-2---------2-2-0-----2-------------|
G|---1-4---------4-2-------------------2-------------------------|
D|-2---------------------------------4---------------------------|
A|---------------------------------------------------------------|
E|---------------------------------------------------------------|

e|-0-0----------0-------0-------0-0----------0-------0-------0-0-|
B|-0-0--5/12\9----3-1-3---3-1-3-0-0--5/12\9----3-1-3---3-1-3-0-0-|
G|---------------------------------------------------------------|
D|---------------------------------------------------------------|
A|---------------------------------------------------------------|
E|---------------------------------------------------------------|

e|-0-0-0-4-0-------0---0-0-0-4-0-5-5-4-0---2-2-4-6-4-2-4-2-2-----|
B|-----------0-0-2---------------------------------------2-2-----|
G|---------------------------------------------------------------|
D|---------------------------------------------------------------|
A|---------------------------------------------------------------|
E|---------------------------------------------------------------|

e|-------------2-0---0-2-0---0-2-2-------------------------------|
B|-7/14\11---------3-------3---2-2-------------------------------|
G|---------------------------------------------------------------|
D|---------------------------------------------------------------|
A|---------------------------------------------------------------|
E|---------------------------------------------------------------|

e|-------------2-0---0-2-0---0-2-2-------------------------------|
B|-7/14\11---------3-------3---2-2-------------------------------|
G|---------------------------------------------------------------|
D|---------------------------------------------------------------|
A|---------------------------------------------------------------|
E|---------------------------------------------------------------|

e|-------------2-0---0-2-0---0-2-2-------------------------------|
B|-7/14\11---------3-------3---2-2-----7/14\11-------------------|
G|---------------------------------------------------------------|
D|---------------------------------------------------------------|
A|---------------------------------------------------------------|
E|---------------------------------------------------------------|

| /  slide up
| \  slide down
| h  hammer-on
| p  pull-off
| ~  vibrato
| +  harmonic
| x  Mute note

Tribute To Buddy Holly Chords – Mike Berry

E - C#m - E
Oh..

E                 C#m
Snow was snowing, wind was blowing
         F#m                 B7
When the world said, goodbye Buddy
E                       C#m
Still I know that up in heaven,
               F#m            B7
is where we'll hear him sing again

E - C#m
Oh..
E - C#m
yeah..

      F#m     B7   A
We'll always-    remember Buddy Holly

E - A - E - B7
E - A - B7

E                                       C#m
Buddy Holly was killed in a plane crash, in 1959

F#m                                         B7
    But his songs will always be remembered, always

E - A - E - B7
E - A - B7

E - C#m
Oh..
E - C#m
yeah..

      F#m     B7   A
We'll always-    remember

Buddy
E - A - E - B7
E - A - B7

E                 C#m
Snow was snowing, wind was blowing
         F#m                 B7
When the world said, goodbye Buddy
E                       C#m
Still I know that up in heaven,
               F#m           B7
is where we'll hear him sing again

E - C#m
Oh..
E - C#m
yeah..
E - C#m
Oh..
E - C#m
yeah..

Closer And Closer Tabs by Metro Station

Tabbed by: Messwifhim/Marcus Tang
Email: Mark_tang_sux

Tuning: Standard

Intro

e|--------------------------------------|
B|--------------------------------------|
G|77777777773333333355555555101010109999|
D|77777777773333333355555555101010109999|
A|555555555511111111333333338 8 8 8 7777|
E|--------------------------------------|

Verse
e|----------------------------------|(You don't have to follow the number of strums)
B|----------------------------------|(All up to you)
G|7777777777333333335555555577777777|
D|7777777777333333335555555577777777|
A|5555555555111111113333333355555555|
E|----------------------------------|

Chorus

e|--------------------------------------|(Play four times)
B|--------------------------------------|
G|77777777773333333355555555101010109999|
D|77777777773333333355555555101010109999|
A|555555555511111111333333338 8 8 8 7777|
E|--------------------------------------|

Bridge

e|--------------------------------------|
B|--------------------------------------|
G|77777777773333333355555555101010109999|
D|77777777773333333355555555101010109999|
A|555555555511111111333333338 8 8 8 7777|
E|--------------------------------------|

Song progression
Intro
Verse x2
Chorus
Verse x2
Chorus
Bridge
Chorus

I Need Tabs by Maverick Sabre

Tabbed by: Matt Reid
Email: mattyreid808

Tuning: Standard

        Dm7                  Am7                Em7
e|-------5--------5------------------------------7-------7-------7-------7--|
B|-------6--------6-----------5-------5----------8-------8-------8-------8--|
G|-------5--------5-----------5-------5----------7-------7-------7-------7--|
D|-------7--------7-----------5-------5----------9-------9-------9-------9--|
A|---5--------5---------------7-------7------7-------7-------7-------7------|
E|------------------------5-------5-----------------------------------------|

Listen to the song for timings. Play all the way through.

************************************

| /   slide up
| \   slide down
| h   hammer-on
| p   pull-off
| ~   vibrato
| +   harmonic
| x   Mute note
| b   Bend
| pb  Pre-bend
| br  Bend release
| pbr Pre-bend release
| brb Bend release bend

************************************

Blue Forever Chords – Matthew Barber

tabbed by Dave Martin

chords used
    EADGBe
Am  X02210
F   133211
C   X32010
G   320033
G/B X2003X
F/E 033211
Dm  XX0231

Intro: Am F  C  G  F  C x2

Am             F     C     G
    I was at a party in my head 
                  F     C      Am
    contemplating every word I said
                     F        C      G
    But every time I tried to make a sound 
                        F       C     Am    F  C  G  F  C
    the words they were nowhere to be found

Am               F         C    G
    Saw you in a thumbnail photograph
                    F          C      Am
    Wondered if you still knew how to laugh
      F    C       G
    I wish I could see
                      F        C       Am  F  C  G  F  C Am  F  C  G  F  C
    You'd probably be laughing back at me

Am         F     C  G  Am        F     C  G 
    Na na na na na na na na na na na

Am            G/B  C
    What were we   like together?
F           F/E  Dm
    Help me I    can't remember
Am         G/B  C       
    I wish I    knew you better
F                F/E  Dm
    Please don't be   blue forever

Am  F  C  G  F  C x2

Am                      F        C          G
    I wonder who's been hanging 'round your door
                        F           C       Am
    Have you found what you've been looking for
                        F    C       G
    You've been hurt so many times before
                       F        C        Am
    It only makes them want you more and more
F    C       G    
    More and more 
F    C       Am    F    C  G  F  C
    More and more

Am         F     C  G  Am        F     C  G 
    Na na na na na na na na na na na
Am         F     C  G  Am        F     C  G  (repeat these chords till end)
    Na na na na na na na na na na na

The Hunter intro Tabs by Mastodon

Guitar tuning is CGCFAD (drop C)

Please advise of corrections :)

--5----3-------0------------0-------0-------0-------------------------|
---------6-------6----------------8---8---8---8------6----------------|
-----------6-------6----------/10-------9----------7------------------|
0---0--------0-----------------------------------0--------------------|
----------------------------------------------------------------------|
----------------------------------------------------------------------|

--5---3-----------0--------0-------0-------0---------0----------------|
--------6-------6----------------8---8---8---8-----6------------------|
----------6---6--------------/10-------9---------7--------------------|
0---0-------0----------------------------------0----------------------|
----------------------------------------------------------------------|
----------------------------------------------------------------------|

--5---3-----------0--------0-------0-------0--------------------------|
--------6-------6----------------8---8---8---8-----6------------------|
----------6---6--------------/10-------9---------7--------------------|
0---0-------0----------------------------------0----------------------|
----------------------------------------------------------------------|
----------------------------------------------------------------------|

--5---3-------0-----------0-----------0-------0-------------0---------|
--------6-------6-------6---6-------8---8---8---8------6------6----6--|
----------6-------6---6---------/10-------9----------7----7------7----|
0---0-------0-------0------------------------------8------------------|
----------------------------------------------------------------------|
----------------------------------------------------------------------|

--------0---------------0---------------0-----------------------------|
----8-----8---8-----5-----5---5-----5-----5---5-----------------------|
--7---7-----7-----7---7-----7-----6---6-----6-------------------------|
5---------------7---------------7-------------------------------------|
----------------------------------------------------------------------|
----------------------------------------------------------------------|

Dude Are You Kidding Me Chords – Man Overboard

Tabbed by: Mean Mr Mustard
Email: Gotchristo@comcast.net

Tuning: Half Step Down

CHORDS:
G       3-5-5-4-3-3-|
Em      0-2-2-0-0-0-|
Am      5-7-7-5-5-5-|
Bm      x-2-4-4-3-2-|
C       x-3-5-5-5-3-|
G/f#    2-5-4-2-3-2-|

So I'm probably about 99% sure of this one's accuracy, since it's a pretty easy song.
Just make sure that if you're playing along with the track, it's tuned a half-step down.
This is my favorite Man Overboard song, and one of my favorite songs of all time. Sounds 
great on acoustic, and would be amazing with two vocalists (for that extra chorus part)

INTRO: (Listen for rhythm, but there's 3 beats of Am, and 1 beat of Bm)
G        | Em        |Am     Bm |C

VERSE:
Em               Bm
Where do I start? How do I begin to
C                          G     G/f#
describe the way I mistake every shadow
Em                Bm
For you being here. And if I get it
C                       G                 G/f#
wrong one more time Ill swan dive off the overpass.

CHORUS:
C              D
I pretend that you're in my car.
G                       Em
Tracing my thoughts and making me whole,
        C                             D
But the never ending solo nights fade into let down days
       G             Em
And Im back home without you.
C
Youll never understand.

VERSE:
Em                            Bm
Your skin looks so smooth but I wouldnt know,
            C                    G    G/f#
Because the lock on your door is keyless.
Em                   Bm
Cold air has made me numb, And this town seems
C                               G                 G/f#
so deceased without you. So Ill write more songs about you.

CHORUS:
C              D
I pretend that you're in my car.
G                       Em
Tracing my thoughts and making me whole,
        C                             D
But the never ending solo nights fade into let down days
        G             Em
And I'm back home without you.
C
Youll never understand.

BRIDGE:
Em         Bm              C
At night I dream of how it could have went
Em         Bm               C
At night I blame myself for how its been.

CHORUS:
C              D
I pretend that youre in my car.
G                       Em
Tracing my thoughts and making me whole,
        C                             D
But the never ending solo nights fade into let down days
       G             Em       C
And Im back home without you. without you.
Am               G
Youll never understand.

Disconnect Chords – Man Overboard

Tabbed by: Mean Mr Mustard
Email: Gotchristo@comcast.net

Tuning: Half Step Down

Fun song here, pretty sure its right, remember to play in half-step if youre 
playing with the album.

CHORDS:
E       0-7-9-9-x-x
E/D#    7-6-9-8-x-x
C#m     x-4-6-6-5-4
A       5-7-7-6-5-5
B       x-2-4-4-4-2

VERSE:
(n.C)
I drove through Berlin tonight.
E                      E/D#
Straight shot down the highway and through my chest.
      C#m                               A
And I thought about missing you and the meaning of the word futile.
E                                  E/D#
I walked around this rainy college campus
                      C#m              A
on a Sunday for three hours.

PRE-CHORUS:
B                                A           E
I thought about home and how you wouldn’t be there.
B                           A              B
And I thought of me and how you just don’t care.

CHORUS:
A                            B
But I could swear I saw your reflection 
                 C#m
in the puddle of rain on the concrete.
A                         B           C#m
You were standing next to me and your lips were on my cheek.
          A                   B
And I can swear I feel the dissection
       E        E/D#      C#m
of the whole me when you leave.
A                           B
And I’ve grown to hate this connection
     C#m
this connection that I weave.

VERSE:
E                             E/D#
I drowned you in alcohol last night.
              C#m                  A
But you poked air holes through my chest.
           E                E/D#                       C#m   A
You fought hard to maintain your place in my heart and on my mind.

CHORUS:
A                            B
But I could swear I saw your reflection 
                 C#m
in the puddle of rain on the concrete.
A                         B           C#m
You were standing next to me and your lips were on my cheek.
          A                   B
And I can swear I feel the dissection
       E        E/D#      C#m
of the whole me when you leave.
A                           B
And I’ve grown to hate this connection

BRIDGE:
     C#m                                          A
this connection that I weave. Connections wearing thin
     C#m                                          B
this connection that I weave. Connections wearing thin

CHORUS:
A                            B
But I could swear I saw your reflection 
                 C#m
in the puddle of rain on the concrete.
A                         B           C#m
You were standing next to me and your lips were on my cheek.
          A                   B
And I can swear I feel the dissection
       E        E/D#      C#m
of the whole me when you leave.
A                           B
And I’ve grown to hate this connection
C#m                                 C#m
I dont remember anything after that.

Price Tag Chords – Maddi Jane V2

Tabbed by: Henrik Engebretsen
@: henrikengebretsen

Chords:
    F  Am Dm Bb
e|--1--5--5--6--|
B|--1--5--6--6--|
G|--2--5--7--7--|
D|--3--7--7--8--|
A|--3--7--5--8--|
E|--1--5--x--6--|

[VERSE 1]
F                            Am
Seems like everybody's got a price
                           Dm
I wonder how they sleep at night

When the tale comes first
        Bb
And the truth comes second
                               F
Just stop for a minute and

Smile :)

                    Am
Why is everybody so serious?
                  Dm
Acting so dang mysterious

Put your shades on your eyes
         Bb
And your heels so high
                               F
That you can't even have a good time

[PRE-CHORUS]
                        Am
Everybody look to their left
                        Dm
Everybody look to their right

Can you feel that, yeah
     Bb
Well pay them with love tonight

[CHORUS]
                   F
It's not about the money, money, money
                   Am
We don't need your money, money, money
                       Dm
We just wanna make the world dance
                 Bb
Forget about the price tag

               F
Ain't about the, ah, cha-ching cha-ching
               Am
Ain't about the, yeah, ba-bling ba-bling
               Dm
Wanna make the world dance
                 Bb             F
Forget about the price tag

[VERSE 2]
                           Am
We need to take it back in time
                        Dm
When music made us all unite
                            Bb     (stop)
And it wasn't low blows and video
                         F
Am I the only one gettin' tired?

                    Am
Why is everybody so obsessed?
                   Dm
Money can't buy us happiness
                         Bb
Can we all slow down and enjoy right now

Guarantee we'll be feelin'
   F
All right

[PRE-CHORUS]
                        Am
Everybody look to their left
                        Dm
Everybody look to their right

Can you feel that, yeah
     Bb
Well pay them with love tonight

[CHORUS]
                   F
It's not about the money, money, money
                   Am
We don't need your money, money, money
                       Dm
We just wanna make the world dance
                 Bb
Forget about the price tag

               F
Ain't about the, ah, cha-ching cha-ching
               Am
Ain't about the, yeah, ba-bling ba-bling
               Dm
Wanna make the world dance
                 Bb             F
Forget about the price tag

[PRE-CHORUS]
                        Am
Everybody look to their left
                        Dm
Everybody look to their right

Can you feel that
        Bb                           F
Can you feel that, o-oh wo-o-woh

                        Am
Everybody look to their left
                        Dm
Everybody look to their right

Can you feel that, yeah
     Bb
Well pay them with love tonight

[CHORUS]
                   F
It's not about the money, money, money
                   Am
We don't need your money, money, money
                       Dm
We just wanna make the world dance
                 Bb
Forget about the price tag

               F
Ain't about the, ah, cha-ching cha-ching
               Am
Ain't about the, yeah, ba-bling ba-bling
               Dm
Wanna make the world dance
                 Bb              F
Forget about the price tag, o-oh

                     Am                Dm
Oh, forget about the price tag, whoa-o-oh-oh-woh
           Bb                      F
Du-du-du-dum-dum-dum-dum, yeah
                     Am                        Dm
Du-du-du-du-dum-du-du, la-da-da-da-da-da-da-da
                 Bb            F (strum once, let it ring)
Forget about the price tag

Mail me with any suggestions/corrections.
Video:  7oBQnIumBRY

Whatll I Do Chords – Lisa Hannigan

**************
TABBED By CARTER12s
**************
Ok so I have no idea if this is right, just what i think sounds good. I think that CFCF 
sounds right on the verse, but it may be CFGF try either one.

CAPO 7

Intro Tab, Relative to the capo.

e-----------0--1--3--5-----------|
B--0--1--3--1--3--5--6-----------|
G--0--2--4-----------------------|
D--------------------------------|
A--------------------------------|
E--------------------------------|

 C               F
What’ll I do without you around,
    C                 F
when my words wont pun, my pennies won’t pound,
C                 F
oh and my frisbee flies to the ground,
C             F
what’ll I do without you.

C                 F
What’ll I say without you to talk to,
 C                  F
no one to serve or volley the ball to,
 C                      F
you write the words but I miss the volume,
 C                F                             \\ Try G 
instead of C here
what’ll I say without you.

G          C          G          C
Oh I don’t know what to do with myself
G         C           C   G
now that I’m here and ... you’re gone.

C      F
O no o oh eh eh
C        F
  ah ah a eh eh
C       F      C     F
O no o oh eh eh

What’ll I do when you’ve gone away,
my ball wont pin, my records won’t play
and all of my hours limp into days,
what’ll I do without you.

What’ll I do now that you’re gone,
my boat won’t row, my bus doesn’t come,
I have the fingers, you’ve got the thumb,
what’ll I do without you.

Oh I don’t know what to do with myself
now that I’m here and you’re gone.

The Down Syndrome intro Tabs by Linkin Park

These tabs are the intro and the main riffs, the distorted guitar in the chorus is the 
only thing excluded. These two tabs are played throughout the whole song:

 |-------------------|
 |-------------------|
 |-------------------|
 |---5-2-5-2-----4---|
 |-------------5-----|
 |-0---------0-------|

then after ever fourth or second time this plays

 |---------------------------|
 |---------------------------|
 |-------------------0-------|
 |---------------4-----4---5-|
 |---5-2-5-2---5---5-----5---|
 |-0---------0---------------|

Broken Acoustic Chords – Lindsey Haun

this song is off the Broken Bridges soundtrack (2006)
 the chords are different from the movie to the single; in the 
 movie, it's played acoustic as a country song, the single is pop.
 Also, i transcribe songs to match the pitch for vocals, so you may
 need to change the tuning for your voice.
  plz rate and comment :) -Sam

Verse One

 C                        A
 wake up to a sunny day / not a cloud up in the sky
 C
 and then it starts to rain

 C           Am                        Em       
 my defenses hit the ground / and they shatter all around 
 C
 so open and exposed

Prechorus

D                       G
i found strength in the struggle
D                    G
face-to-face with my troubles

Chorus

C            A            D
when you're broken / in a million little pieces
             C              G
and you're tryin' / but you can't hold on any more
D                  G          C
every tear / falls down for a reason
           A                D
don't you stop believing in yourself
     Em
when you're broken

Verse Two

C                              A
little girl don't be so blue / i know what you're goin' through
C
don't let it beat you up
C                                 Am 
heaven knows that getting scars / only makes you who you are
Am
only makes you who you are

Prechorus Two:

D                                G
no matter how much your heart is aching
D                      G
there is beauty in the breaking

Morning Rain Tabs by Jubing Kristianto

Tabber: Anto Nugroho
Submited by: Reinaldy Rafli
Tempo = 100

-------------------------------
Legend
L - tied note
x - dead note
h - hammer on/pull off
b - bend
s - slide
~ - vibrato
g - ghost note
> - accentuated note
t - trill
M - palm mute
. - staccato
P - popping (bass)
S - slapping (bass)
+ - tapping
W - wide vibrato
< - fade in
w - whammy bar
= - tremolo picking
v - brush up
^ - brush down
V - pick stroke up
n - pick stroke down
-------------------------------
Standard Tuning! 

E |----------------||-0-------------|----------------|----------------|
B |--------1--3----||-------1--0----|--------1-------|-----------0----|
G |----------------||o--------------|-----------2----|--------2-------|
D |----------------||o---2----------|-----2----------|-----0----------|
A |----------------||-0-------------|----------------|----------------|
E |----------------||---------------|--3-------------|--1-------------|

----------------|--0--------0----|--------3--3----|-----------3----|
--------1--3----|--------1-------|----------------|--------1-------|
-----0----------|----------------|-----0----------|-----0----------|
----------------|-----2----------|----------------|----------------|
----------------|--0-------------|--2-------------|--3-------------|
--3-------------|----------------|----------------|----------------|

---------------||--------0--3----||-5-----5--3----|--------0-------|
--------1--3---||----------------||---------------|-----------3----|
-----0--------o||-----0----------||o---5----------|-----4----------|
--------------o||----------------||o3-------------|--3-------------|
--3------------||--3-------------||---------------|----------------|
---------------||----------------||---------------|----------------|

----------------|----------------|--------0-------|----------------|
--1-----1--0----|----------------|-----------3----|-----1--0--1----|
----------------|--------2--0----|--2-------------|----------------|
-----2----------|-----2----------|-----3----------|----------------|
--0-------------|----------------|----------------|----------------|
----------------|--3-------------|--1-------------|--3-------------|

----------------|--------0--3---||----------------|--------0-------||
-----------1----|-----1---------||-----------1----|-----------3----||
--------4-------|--------------o||--------0-------|----------------||
-----2----------|--------------o||-----2----------|-----2----------||
--0-------------|--0------------||--3-------------|--3-------------||
----------------|---------------||----------------|----------------||

-------0-------|--------3--1----|-----0----------|--------0-------|
-1--------3----|----------------|--------3--1----|-----------3----|
o--------------|-----0----------|----------------|-----0----------|
o---2----------|----------------|----------------|--3-------------|
-0-------------|--2-------------|--3-------------|----------------|
---------------|----------------|----------------|----------------|

----------------|---------------||----------------|----------------|-------||
-----0----------|-----------0---||-----3--1--0----|--1--------1----|-------||
--------2--2----|-----0--2-----o||----------------|--------0-------|-------||
--3-------------|--3-----------o||--3-------------|-----3----------|--2----||
----------------|---------------||----------------|--3-------------|-------||
----------------|---------------||----------------|----------------|-------||

-------0-------|----------------|----------------|----------------|
-1h-3-----3----|--------0--1----|-----------1----|----------------|
o--------------|-----0----------|--------4-------|--------2h-0----|
o3-------------|----------------|-----2----------|-----2----------|
---------------|----------------|--0-------------|--0-------------|
---------------|--3-------------|----------------|----------------|

--------0-------|--------0--0----|----------------|---------------||
--1h-3-----3----|----------------|-----------1----|---------------||
----------------|-----0----------|--------4-------|--------2-----o||
--3-------------|----------------|-----2----------|-----2--------o||
----------------|----------------|--0-------------|--0------------||
----------------|--3-------------|----------------|---------------||

----------------|----------------|----------------||-0-------------|
--------1--1----|-----------1----|--------1--3----||-------1--0----|
-----0----------|--------0-------|-----0----------||o--------------|
----------------|-----2----------|----------------||o---2----------|
----------------|--3-------------|--3-------------||-0-------------|
--3-------------|----------------|----------------||---------------|

----------------|----------------|----------------|--0--------0----|
--------1-------|-----------0----|--------1--3----|--------1-------|
-----------2----|--------2-------|-----0----------|----------------|
-----2----------|-----0----------|----------------|-----2----------|
----------------|----------------|----------------|--0-------------|
--3-------------|--1-------------|--3-------------|----------------|

--------3--3----|-----------3----|---------------||--------0--3----||
----------------|--------1-------|--------1--3---||----------------||
-----0----------|-----0----------|-----0--------o||-----0----------||
----------------|----------------|--------------o||----------------||
--2-------------|--3-------------|--3------------||--3-------------||
----------------|----------------|---------------||----------------||

-5-----5--3----|--------0-------|----------------|----------------|
---------------|-----------3----|--1-----1--0----|----------------|
o---5----------|-----4----------|----------------|--------2--0----|
o3-------------|--3-------------|-----2----------|-----2----------|
---------------|----------------|--0-------------|----------------|
---------------|----------------|----------------|--3-------------|

--------0-------|----------------|----------------|--------0--3---||
-----------3----|-----1--0--1----|-----------1----|-----1---------||
--2-------------|----------------|--------4-------|--------------o||
-----3----------|----------------|-----2----------|--------------o||
----------------|----------------|--0-------------|--0------------||
--1-------------|--3-------------|----------------|---------------||

----------------|--------0-------||-------0-------|--------3--1----|
-----------1----|-----------3----||-1--------3----|----------------|
--------0-------|----------------||o--------------|-----0----------|
-----2----------|-----2----------||o---2----------|----------------|
--3-------------|--3-------------||-0-------------|--2-------------|
----------------|----------------||---------------|----------------|

-----0----------|--------0-------|----------------|---------------||
--------3--1----|-----------3----|-----0----------|-----------0---||
----------------|-----0----------|--------2--0----|-----0--2-----o||
----------------|--3-------------|--3-------------|--3-----------o||
--3-------------|----------------|----------------|---------------||
----------------|----------------|----------------|---------------||

----------------|----------------|-------||-8--------8L---|--8--------8----|
-----3--1--0----|--1--------1----|-------||-------8-------|--------8-------|
----------------|--------0-------|-------||o---0----------|-----0----------|
--3-------------|-----3----------|--2----||o--------------|----------------|
----------------|--3-------------|-------||-8-------------|----------------|
----------------|----------------|-------||---------------|----------------|

-----------3L---|--3--------3----|--8--------8L---|--8--------8----|
--------3-------|--------3-------|--------8-------|--------8-------|
-----0----------|-----0----------|-----0----------|-----0----------|
----------------|----------------|----------------|----------------|
--3-------------|----------------|--8-------------|----------------|
----------------|----------------|----------------|----------------|

--0--------3----|--------0------||-------0-------|----------------|
--------1-------|-----1---------||-1h-3-----3----|--------0--1----|
-----2----------|--2-----------o||o--------------|-----0----------|
----------------|--------------o||o3-------------|----------------|
--0-------------|---------------||---------------|----------------|
----------------|---------------||---------------|--3-------------|

----------------|----------------|--------0-------|--------0--0----|
-----------1----|----------------|--1h-3-----3----|----------------|
--------4-------|--------2h-0----|----------------|-----0----------|
-----2----------|-----2----------|--3-------------|----------------|
--0-------------|--0-------------|----------------|----------------|
----------------|----------------|----------------|--3-------------|

----------------|---------------||----------------|----------------|
-----------1----|---------------||--------1--1----|-----------1----|
--------4-------|--------2-----o||-----0----------|--------0-------|
-----2----------|-----2--------o||----------------|-----2----------|
--0-------------|--0------------||----------------|--3-------------|
----------------|---------------||--3-------------|----------------|

----------------||-0--------3L---|--3--0----------|-----------0L---|
--------1--3----||-------3-------|-----------3----|-----1--3-------|
-----0----------||o--------------|----------------|----------------|
----------------||o3-------------|--3-------------|----------------|
--3-------------||---------------|----------------|--3-------------|
----------------||---------------|----------------|----------------|

--0-------------|--0--------3L---|--3--0-----0----|----------------|
----------------|--------3-------|--------3-------|-----------1----|
-----0-----0----|----------------|----------------|--------0-------|
--------2-------|--3-------------|--3-------------|-----2----------|
--3-------------|----------------|----------------|--3-------------|
----------------|----------------|----------------|----------------|

                                                     ^
---------------||----------------|--0-------------|--0----||
-----------1---||--------1--3----|-----3--1-------|--1----||
--------0-----o||-----0----------|-----------0----|--0----||
-----2--------o||----------------|----------------|--2----||
--3------------||--3-------------|----------------|--3----||
---------------||----------------|----------------|-------||

Sanay Kapiling Ka Chords – Jolina Magdangal

chords by Edd Valdez

Em                     Am
Ikaw sa puso at isipan ko
D                           G
Ikaw ang tawag ng pag-ibig ko
Em                            Am
Ikaw ang s'yang lahat sa buhay ko
B7                                   Em
Kahit kailan man ay ikaw lang ang iibigin ko

Em                     Am
Bakit kailangan pang magkalayo
D                           G
Ngayo'y nalulungkot yaring puso
Em                            Am
Ikaw maging sa alaala ko
Em 
Nasaan ka na
                       D
Sana'y marinig ang damdamin ko

       Am           D
Sana'y ikaw ay narito
         G          Em
Kapiling at kayakap ko
          Am              B7
Alam mo ba ang pag-ibig ko
        Em         E
Ay para lamang sa 'yo
          Am           D
Ang buhay ay hindi sapat
        G          Em
Kapag wala ka na sinta
          Am        B7
Sana sa bawat sandali'y
         C
Kapiling ka
B7             Em
Sana'y kapiling ka

Bakit kailangan pang magkalayo
Ngayo'y nalulungkot yaring puso
Ikaw maging sa alaala ko
Nasaan ka na
Sana'y marinig ang damdamin ko

One Thing Chords – Jeff Bates

Intro x2
E|-------------------------|
B|---2-3---2-3---2-3---3-2-|
G|-2-----2-----2-----2-----|
D|-------------------------|
A|-------------------------|
E|-------------------------|

Bm        G                D              A            Bm
I wasn't put here on this earth to work like I do all week
         G                  D              A                  Bm
I don't live to punch that clock and come home and eat and sleep
       G             D         
I was made for something more
           A              G            Em
And God's made it pretty clear, I'm only here

Chorus
    Bm    G          D       A
For one thing and one thing only
Bm      G         D            A                  
To love you and keep you from ever getting lonely
Bm          G                 D
To be your rock that never rolls
             A                Bm
To hold your body, touch your soul
     A               G        
And fill your every need, 
Em         A           Bm
I'm only here for one thing

(Intro Riff)

Bm       G                      D
How many men walk through this life
      A         Bm       G              D
And never even know the reason they're alive
         A                Bm              G            D         
Oh, And then it's time to go but I don't ever have to wonder
         A                G             Em
'Cause, baby, when you're near, I know I'm here

Chorus
     Bm      G       D       A
For one thing and one thing only
Bm       G          D           A
To love you and keep you from ever getting lonely
Bm          G                  D
To be your rock that never rolls
              A                Bm
To hold your body, touch your soul
     A          G          Em       A             Bm
And fill your every need, I'm only here for one thing

E|-------------------------------------|
B|-------------------------------------|
G|---6h7-6-4-6h7-6-4-2-4-2-2-------2-2-|
D|---------------------------4-2h4-----|
A|-------------------------------------|
E|-------------------------------------|

E|---------------------------------------|
B|-----------------------2-3-5-3h5-3-2-0-|
G|---6h7-6-4---6h7-6-4-2-----------------|
D|-4---------4---------------------------|
A|---------------------------------------|
E|---------------------------------------|

To harmonize the guitar on the second part of the solo

E|---------------------------------------|
B|---5h7-5-----5h7-5-----5-7-8-7h8-7-5-7-|
G|-4-------7-4-------7-6-----------------|
D|---------------------------------------|
A|---------------------------------------|
E|---------------------------------------|

Chorus
    Bm    G          D        A
For one thing and one thing only
Bm        G        D           A
To love you and keep you from ever getting lonely
Bm          G                D
To be your rock that never rolls
              A               Bm
To hold your body, touch your soul
      A            G      Em         A            Bm   G   D   A    
And fill your every need, I'm only here for one thing
          Bm   G
I'm only here...for one thing

The World As I See It Tabs by Jason Mraz

Jason Mraz the world as I see it                 H=hold note a little longer

intro
                 H                            H
e|---------------------------------------------------------------------------|
B|---3-----------3--------------3-------------3------------------------------|
G|------3------------3--------------3---------------3------------------------|
D|----------5-------------5--------------5----------------5------------------|
A|---------------------------------------------------------------------------|
E|---------------------------------------------------------------------------|
                    H                            H
e|---------------------------------------------------------------------------|
B|----1-------------1-------------1--------------1---------------------------|
G|---------2-------------2--------------2--------------2---------------------|
D|--------------3-------------3--------------3----------------3--------------|
A|---------------------------------------------------------------------------|
E|---------------------------------------------------------------------------|-
                                                    x4

x4
Cm                            Bb
The world as I see it, is a remarkable place
Cm                                Bb
A beautiful house in a forest, of stars in outer space.
 Cm                            F                         Bb
 From a birds eye view, I can see it has a well-rounded personality
Cm                           F            Gm
 From a birds eye view, I can see we are family.

Cm
It’s not hard for me to love you
 Hard for me to love you
Bb
 No it’s not a difficult thing.
           Cm
 It’s not hard for me to love you
                           Bb
 Hard for me to love you Because you are the world to me.

Cm                          Bb
 Yeah the world as I see it, is a remarkable place
Cm                                Bb
 Every man makes a difference And every mothers child is a saint
 Eb                            F                         Bb
From a birds eye view I can see, we are spiralling down in gravity
 Eb                            F             Gm
From a birds eye view I can see, you are just like me.

Cm
 It’s not hard for me to love you Hard for me to love you
Bb
No it’s not a difficult thing.
Cm
It’s not hard for me to love you Hard for me to love you
Bb
Unconditionally.

Cm
 No it’s not hard for me to love you Hard for me to love you
Bb
No it’s not a difficult thing.
Cm
It’s not hard for me to love you Hard for me to love you
Bb
Because you are the world to me.

Eb                                 F
You are the mountain, you are the rock
             Bb        F           Gm
 You are the cord and you’re the spark
 You are the eagle, you are the lark
 You are the world and you’re remarkable

 You’re the ocean eating the shore
 You are the calm inside the storm
 You’re every emotion, you can endure
 You are the world, the world is yours.

 (It’s not hard for me to love you Hard for me to love you
 No it’s not a difficult thing. It’s not hard for me to love you Hard for me to 
love you Unconditionally)

 No it’s not hard for me to love you
 Hard for me to love you No it’s not a difficult thing.
 It’s not hard for me to love you Hard for me to love you
 Unconditionally.

 No it’s not hard for me to love you Hard for me to love you
 No it’s not a difficult thing. It’s not hard for me to love you Hard for me to love you
Because you are the world to me.

 Yeah the world as I see it, is a remarkable place

Up Chords – James Morrison

This is the new song from the album '' The Awakening '' By James Morrison,'' Up ''.

I'll show you how the chord's goes trough the song.

Intro :
X2
Bm - Bm9 - Cadd9 - E7

Verse :

Bm          Bm9           Cadd9
 Can i find you when you'r allways
         E7
hiding from yourself .. osv.

Ref : Build up for ref goes like :

e------------------------|
B------------------------|
G------------------0-----|
D--------0--2---4--------|
A--2--4------------------|
E------------------------|

X2
G
its never to late to turn
  Bm
it back around.

Yeah i know you can.

 G
The only way is
Bm-Bm9-G-D
Up, Up, Up
The only way is
Bm-Bm9-G
Up, Up, Up

And it goes like this the rest of the song. just listen, you got the chords so you'll 
probibly get the song together.

Hilma Ja Onni Chords – Jaakko Teppo

Tabbed by: Tuoksman

Am             E
Rantamalla Likolahden
              Am
Hilma Holokin kanssa kahden
Dm          Am
yheteisestä rakkauvesta
E           Am
aina haaveiltiin.
Am              E
Käessä pitelin, Hilman kättä
                      Am
aettaan mäntiin siitta viivyttelemättä.
Dm          Am
tekohampaat samaan lasiin,
E           Am
yöksi laitettiin.

C              G
Kunnes Hiliman vei multa Onni,
                 Am
Laukkanen, kylän ravattisonni.
                    E
Hajanaisten kenkies lotinaa,
                     Am
navetalta kuule, nyt en.

Am                E
Poissa lasista on Hiliman hampaat
             Am
myöty kanat, siat, lampaat
Dm          Am
konelypsyyn kantturat täytyi
E          Am
minun totuttaa
Am             E
navettaan minä mänen nytkin
           Am
rikki lypsykoneen kytkin
Dm           Am
Miksen Hilma koskaan sua
E            Am
takaisin minä saa

C            G
Miksi Hilman vei multa Onni
                 Am
Laukkanen, kylän ravattisonni.
                    E
Hajanaisten kenkies lotinaa,
                     Am
navetalta kuule, nyt en.

Am                 E
Kynsilakkaa oot sä lyönyt näppiin
            Am
aittas oven laitat säppiin
Dm            Am
vällyn väliin painut kanssa
E          Am
Onni Laukkasen
Am              E
Kumiteräs aitan rappuun nojaan
                Am
tuskissain minä kaivan ojaa
Dm           Am
Laukkanen ja syksy saa
E          Am
mutta minä en

C            G
Koska Hilman vei multa Onni
                 Am
Laukkanen, kylän ravattisonni.
                    E
Hajanaisten kenkies lotinaa,
                     Am
navetalta kuule, nyt en.

Am                E
Jätitko mut Hilma ehkä juuri siksi
                     Am
etten koskaan tullut vänkäriksi
Dm           Am
lietettä kun luukun läpi
E          Am
mätit lantalaan
Am             E
Nyt mä kaikkea kadun vasta
                  Am
Hilma ootteloo jo Onnin lasta
Dm           Am
kahen viikon piästä niihen
E           Am
häitä tanssitaan

C                     G
Kuokkavieraaks meinaan männä minä päissään
                   Am
kostan Hilmalle ja pieraisen häissään
                    E
Hajanaisten kenkies lotinaa,
                     Am
navetalta kuule, minä en.
Dm            Am
Ihan itekseni kuopan katolla
     E            Am
näin sinua muistellen

Men Of Snow Chords – Ingrid Michaelson

 C             E              Am     F
Once I made a man all out of snow
    C               E                 Am    F
He had the darkest eyes and a button nose
   C               E              Am    F
I told him all my sadness and my fear
             C      E             Am    F  
And he just listened with a snowy ear

C                  E           Am    F
But when I came around the next day
    C                   E           Am   F
My friend had gone and melted all away
   C            E            Am      F
I saw his eyes lying on the ground
          C              E            Am       F
I made a sound that was something like crying
C G  Am      F       C   G         Am   F  
Oh, one day you will go away from this
C G  Am      F        C          E      Am       F                    
Oh, one day you will know we're men of snow, we melt one day

C E Am F

C                     E                Am   F
Winters come, and my love, the winters go
     C                  E                Am   F
And time stacks up in piles like winter snow
     C              E              Am     F 
And everything you love and hold so dear
               C    E             Am   F      
Won't really matter when we disappear

C G  Am      F       C     G       Am    F 
Oh, one day you will go away from this

Oh, one day you will know we're men of snow, we melt one day

Oh, one day you will go away from this

Oh, one day you will know we're men of snow, we melt, you know, we're men of 
snow.

We melt one day

If Youre Up Late Acoustic Chords – In Fiction

I've yet to see a tab for this yet so I thought I'd tab it myself. Rate/hate, comments 
please :D!!!
If you haven't heard this song, here is a link! -->  hD-LxqPkTOQ

CHORDS USED: [CAPO 1] (sounds best for me)

  Em7 Cadd9  G  Dsus4 A7Sus4
e--3----3----3----3----3----|
B--3----3----3----3----3----|
G--0----0----0----2----0----|
D--2----2----0----0----2----|
A--2----3----2----0----0----|
E--0----x----3----x----x----|

[[INTRO]]

Cadd9 Em7 Dsus4 A7Sus4 x2

[[VERSE 1]]

Cadd9
I have so many dreams

     Em7           Dsus4
That I should read up about

                      A7Sus4
But would the words I read change me?

Cadd9                            Em7          Dsus4
'Cause I bet the story says that I should ask for a sign

                       A7Sus4
And I should get this off my chest,

Cadd9                 Em7       Dsus4
I've never walked so far in the pouring rain...

                 A7Sus4
I never one even asked you to stay,

Cadd9
And I owe, to you...

Em7        Dsus4               A7Sus4
Some of my best spent days...

[[CHORUS]]

Em7   Cadd9                      G
So if you were me what would you do?

                Em7
Is the risk too great?

      Cadd9                       G      Em7
If I lock this up I'm risking you too...

         Cadd9                  G
'Cause I don't wanna wish on my past...

                Em7
So if you're up late,

             Cadd9
There's some things,

               G
I wanna say to you...

[[VERSE 2]]

Cadd9
You have the warmest eyes

     Em7       Dsus4
That I've ever looked into...

               A7Sus4
As I ignore my fear of heights,

Cadd9
And I think it's cute,

             Em7            Dsus4
How all your friends borrow clothes from you,

                            A7Sus4
And you still let them even though you're mad...

Cadd9
And if in fact

    Em7           Dsus4
Our actions speak as loud as words

                     A7Sus4
Then I'm a fool if I don't concus

Cadd9
'Cause I owe to you

Em7        Dsus4              A7Sus4
Some of my best spent days...

[[CHORUS]]

Em7   Cadd9                      G
So if you were me what would you do?

                Em7
Is the risk too great?

      Cadd9                       G      Em7
If I lock this up I'm risking you too...

         Cadd9                  G
'Cause I don't wanna wish on my past...

                Em7
So if you're up late,

             Cadd9
There's some things,

               G      Dsus4
I wanna say to you...

[[BRIDGE]]

Cadd9
This is something,

               Dsus4 Em7 G
Something so unforeseen

Cadd9
But you have changed me...

                  Dsus4 Em7 G
Changed me in how I feel...

Cadd9
So Tread easy...

              Dsus4    Em7  G
It's not like this has to change,

Cadd9
I don't need this,

                Dsus4     Em   G
It's fine if it stays the same...

Cadd9
But tonight...

[[CHORUS]]

Em7   Cadd9                        G
So if you were me what would you do?

                Em7
Is the risk too great?

      Cadd9                       G      Em7
If I lock this up I'm risking you too...

         Cadd9                  G
'Cause I don't wanna wish on my past...

                Em7
So if you're up late,

             Cadd9
There's some things,

               G      Dsus4
I wanna say to you...

[[OUTRO]]

Em7         Cadd9  G
But you're asleep...

Em7         Cadd9  G
But you're asleep...

End on Cadd9