Month: July 2013

Mary Did You Know Tabs by Kutless V3

 I know there are already tabs up for this but i saw some corrections and i thought i 
would add one for Drop D, it adds a little kick :) Thanks to kalep for doing half my work 
for me :D

Acoustic-Standard
Electric-Drop D

INTRO/VERSE

Electric
Clean
E|-------------------------|
B|-----3-----3-----1-----0-|
G|---0-----2-----2-----2---|
D|-2-----0-----2-----1-----|
A|-------------------------|
D|-------------------------|

VERSE (part 2)

Electric
Clean
E|-------------------------|
B|-----3-----3-----1-----0-|
G|---0-----2-----2-----2---|
D|-2-----0-----2-----1-----|
A|-------------------------|
D|-------------------------|

Acoustic

E|---------|
B|---------|
G|-9-7-5-4-|
D|-9-7-5-4-|
A|-7-5-3-2-|
E|---------|

CHORUS

Electric
Distortion
E|-----------------|
B|-----------------|
G|-----------------|
D|-10-12-5-4-2-7-9-|
A|-10-12-5-4-2-7-9-|
D|-10-12-5-4-2-7-9-|

VERSE

Electric

E|--------10--------------------------------------|
B|-8-8-8-8--8-8-8-8-12-8-8-8-8-10-7-7-7-7---------|
G|--9-9-9----9-9-9------9-9-9------9-9-9-9--------|
D|------------------------------------------------|
A|------------------------------------------------|
D|------------------------------------------------|

Acoustic

E|---------|
B|---------|
G|-9-7-5-4-|
D|-9-7-5-4-|
A|-7-5-3-2-|
E|---------|

CHORUS

Electric
Distortion
E|-----------------|
B|-----------------|
G|-----------------|
D|-10-12-5-4-2-7-9-|
A|-10-12-5-4-2-7-9-|
D|-10-12-5-4-2-7-9-|


BRIDGE (part 1)

Electric
Clean
E|-------------------------|
B|-----3-----3-----1-----0-|
G|---0-----2-----2-----2---|
D|-2-----0-----2-----1-----|
A|-------------------------|
D|-------------------------|

BRIDGE (part 2)

Electric
Distortion
E|-----------------------|
B|-----------------------|
G|-----------------------|
D|-10-12-5-4-2-10-12-7-9-|
A|-10-12-5-4-2-10-12-7-9-|
D|-10-12-5-4-2-10-12-7-9-|

VERSE

Electric

E|--------10--------------------------------------|
B|-8-8-8-8--8-8-8-8-12-8-8-8-8-10-7-7-7-7---------|
G|--9-9-9----9-9-9------9-9-9------9-9-9-9--------|
D|------------------------------------------------|
A|------------------------------------------------|
D|------------------------------------------------|

Acoustic

E|---------|
B|---------|
G|-9-7-5-4-|
D|-9-7-5-4-|
A|-7-5-3-2-|
E|---------|

CHORUS

Jesus Lord Of Heaven Chords – Kutless V5

 Verse 1:

 C G 
Jesus, Lord of Heaven
 Am F 
I did not deserve
       C G 
the grace that You have given
           Am F 
and the promise of Your word


Verse 2:

 C G 
Lord, I stand in wonder
           Am F 
of the sacrifice You made
        C G 
with mercy beyond measure
     Am F 
My debt You freely paid


CHORUS
                C G                
Your love is dee--per than any ocean
  Am F               
high-er than the heavens
    C G F 
reach--es beyond the stars in the sky


Verse 1:

 C G 
Jesus, Lord of Heaven
 Am F 
I did not deserve
       C G 
the grace that You have given
           Am F 
and the promise of Your word

CHORUS
                C G                
Your love is dee--per than any ocean
  Am F               
high-er than the heavens
    C G F 
reach--es beyond the stars in the sky


BRIDGE
         C G F 
Jesus, Your love has no bounds (x3)


CHORUS
                C G                
Your love is dee--per than any ocean
  Am F               
high-er than the heavens
    C G F 
reach--es beyond the stars in the sky (2x)


OUTRO

 C G F 
Jesus, Your love has no bounds

Kv Crimes Tabs by Kurt Vile

 KV Crimes ~ Kurt Vile
from "Wakin On a Pretty Daze"

Riff 1:
E|-3---3---3-3-----1-------1-------|
B|-3---6---5-3-----1-------1-------|
G|-5---5---5-5-----3-------2-------|
D|-5---------------3-------3-------|
A|---------------------------------|
e|---------------------------------| 
       
Riff 2:
E|---3-----3-----------------------|
B|-----3-----3---------------------|
G|-5-----5-----0-2-2/3-----2-------|
D|---------------------------------|
A|---------------------------------|
e|---------------------------------|

Riff 3:
E|------------------------------------------------|
B|------------------------------------------------|
G|------------------------------------------------|
D|-7---5-------12--3-------7---5---5/7/10-3-------|
A|-5---3-------10--1-------5---3---3/5/8--1-------|
e|------------------------------------------------|

First solo:
E|---------------------------------------------|
B|-6p5-------------------6p5-------------------|
G|-----7p5-7p5-5-------------7p5---------------|
D|-------------------------------8-------------|
A|---------------------------------------------|
e|---------------------------------------------|

E|---------------------------------------------|
B|-6p5-------------------6---8b--6-----6h8p6---|
G|-----7p5-7p5-5-----5h7---------------------7-|
D|---------------------------------------------|
A|---------------------------------------------|
e|---------------------------------------------|

E|-8p5-----------------------------------------|
B|-----8p6---------------6---6-----------------|
G|---------7-5-------5h7-----------------------|
D|-----------------------------5-\3----3h5p3---|
A|-------------------------------------------5-|
e|---------------------------------------------|

E|---------------------------------------------|
B|---------------------------------------------|
G|-------------------------------3-3--/7-------|
D|-------------------------------3-3--/7-------|
A|-3h5p3-3-----------------------1-1--/5-------|
e|---------------------------------------------|

Second solo:
E|---------------------------------------------|
B|-6-5-------------------6-5-------------------|
G|-----7-5-7-5---------------7-5---------------|
D|-------------------------------8-------------|
A|---------------------------------------------|
e|---------------------------------------------|

E|---------------------------------------------|
B|-6-5-------------------6---8b-6------6h8p6---|
G|-----7-5-7-5-------5h7---------------------7-|
D|---------------------------------------------|
A|---------------------------------------------|
e|---------------------------------------------|

E|-8p5-----------------------------------------|
B|-----6h8p6-------------6---8b-6--------------|
G|-----------7-5-----5h7----------5h7----------|
D|------------------------------------5--3h5-3-|
A|---------------------------------------------|
e|---------------------------------------------|

E|---------------------------------------------|
B|---------------------------------------------|
G|-------------------------------3-3--/7-------|
D|-3h5p3-------------------------3-3--/7-------|
A|-------5-3---------------------1-1--/5-------|
e|---------------------------------------------|

Note: several variations can be played off each riff. The tablature above is 
just a skeletal representation of the song, not a note-by-note deconstruction.

Chase The Feeling Chords – Kris Kristofferson

 INTRO:  A A 
It takes one to know one baby, I know how you feel
 A 
You got your hunger and some problems that are real
            D 
And you're dealin' with some demons who are drivin' you insane
       A 
And I seen 'em drag you screamin' down the hallways of your brain


CHORUS:
              D 
And you got loaded again
                                A 
Ain't you handsome when you're high
            E 
Oh nothin' matters
 D A 
Chase the feelin' 'til you die


Let it right on in there baby, let it run your life
Let it run your children off and let it run your wife
Let it take the joy you love and turn it to dispair
You know you knew better, baby, you just didn't care


CHORUS:
                 D 
'Cause you were loaded again
                                A 
Ain't you handsome when you're high, you can't help it
            E 
Oh nothin' matters
 D A 
Chase the feelin' 'til you die


SOLO:  A D A E D A 


Blame it on the moonlight, baby, think of number one
Tangled up in two when you were shinin' like the sun
With a pretty piece of hunger who was younger than her eyes
On the scale of cosmic thunder it's a wonder you're alive


CHORUS:
              D 
And you were loaded again
                                A 
Ain't you handsome when you're high
            E 
Oh nothin' matters
 D A 
Chase the feelin' 'til you die


Let it right on in there baby, let it run your life
Let it run your children off and let it run your wife
Let it take the joy you love and turn it to dispair
You know you knew better, baby, you just didn't care

          D A E D A 
You were loaded again

Yildizlarin Altinda Chords – Koray Candemir

 Gm Eb - D Gm - F - Eb 
Benim gonlüm sarhostur yildizlarin altinda
 Eb Cm D Gm - F - Gm 
Sevismek ah ne hostur yildizlarin altinda
 Gm Eb - D Gm - F - Eb 
Mavi nurdan bir irmak golgede bir salincak 
 Eb Cm D Gm 
Bir de ikimiz kalsak yildizlarin altinda
 
 Gm F Eb Bb    
Yanmam gonlüm yansa da ecel beni alsa da
 Eb Bb D Gm 
Gozlerim kapansa da yildizlarin altinda
 Gm F Eb Bb    
Yanmam gonlüm yansa da ecel beni alsa da
 Eb Bb D Gm 
Gozlerim kapansa da yildizlarin altinda
 Eb Bb D Gm 
Gozlerim kapansa da yildizlarin altinda
   Solo   Gm - Eb - D Gm - Eb - D    ) 2 Kere
 Gm Eb D Gm - F - Eb 
Benim gonlüm sarhostur yildizlarin altinda
 Eb Cm D Gm 
Sevismek ah ne hostur yildizlarin altinda
 Gm F Eb Bb    
Yanmam gonlüm yansa da ecel beni alsa da
 Eb Bb D Gm 
Gozlerim kapansa da yildizlarin altinda
 Gm F Eb Bb    
Yanmam gonlüm yansa da ecel beni alsa da
 Eb Bb D Gm 
Gozlerim kapansa da yildizlarin altinda
 Eb Bb D Gm 
Gozlerim kapansa da yildizlarin altinda
 Eb Bb D Gm 
Gozlerim kapansa da yildizlarin altinda
   Solo   Gm - Eb - Dm Gm - Eb - Dm Gm - Eb - Dm Gm - Eb - Dm Gm

My Mom Chords – Kimya Dawson V2

 I love this song, but the other chord entry didn't do it for me, so I did this.

---

My Mom - Kimya Dawson
Remember That I Love You (2006)

---

   E 
Have you ever had a dream

that your favorite baby's drowning?
                 F 
and you grab him by his sweater sleeve and pull him up on to the ground and
  E 
you can hear the water slosh around inside his tiny gut
   F 
push his belly up and down but he can't cough the water up
   E F 
suddenly a flood comes out his mouth till there is nothing left inside of him,

he's empty now

there isn't even one small breath


        F G C 
and he goes limp in your arms
  F G 
all the people's mouths are moving 
  C 
all you hear are car alarms
         F G C 
and you wake up and start to cry
 F G C 
I will lose my shit if even one more person I know dies
         F G C 
so please don't die

 F C 
my mom's sick she's in a hospital bed
 F C 
I've got a word for all you ghosts in her head
         F C 
and all you skeletons in her closet
 F 
leave her alone
 C 
leave her alone
 F C 
leave her alone, please

               F G C 
because my mom needs you gone
  F G C 
my mom needs you gone
       F G C 
as long as she is haunted she'll never get strong
  F G C 
my mom needs you gone

          G C 
you traded all your paper clips for a soap dish that way
            G C 
your best friend's rubber ducky wouldn't slip and slide away
             G C G 
but he traded his rubber duck for a cigar box to place your paper clips in
                                 G7 
Mr. Hooper came to say,
  
   F G C 
"Oh, my dear friends, Bert and Ernie,
   F G C 
here's a little something for each of you from me
  F G C 
here are your paper clips and here's your rubber ducky
 F G G7 
how could I ignore such selfless generosity?"

         F C 
the human body's made up of good and bad bacteria
                F C 
but the antibiotics and the antibacterials are killing all the good ones
               F C 
and the bad ones just get stronger and become super infections
         F C 
it's harder to destroy them and it's harder to detect them
                     F C 
and there's something in her blood
                     F C 
and there's something in her leg
                     F C G 
and there's something in her brain


 F C 
my mom's sick she's in a hospital bed
 F C 
I've got a word for all you ghosts in her head
         F C 
and all you skeletons in her closet
 F 
leave her alone,
 C 
leave her alone,
 F                       
leave her alone,
 C 
leave her alone,
 F 
leave her alone,
 C 
leave her alone, 
 F C 
leave her alone, please
               F G C 
because my 

Read My Mind Tabs by Killers V7

 The Killers
Sam's Town
Read My Mind

Tuning: Half-Step Down
No Capo

~ Verse ~
Eb----------------------------------------|
Bb----------------------------------------|
Gb--7-------6-----------------------------| x 2
Db--7-x16---7-x16-------------------------|
Ab--5-------7-----------------------------|
Eb---------(5)----------------------------|

~ Pre-Chorus ~
Eb---------------------------------------------------------------------|
Bb---------------------------------------------------------------------|
Gb---------------------------------------------------------------------| x 2
Db----------12------------------12------------------12-----------------|
Ab---9-10-9----9-10-9----9-10-9----9-10-9----9-10-9----9-10/7----------|
Eb---------------------------------------------------------------------|

~ Chorus ~
Eb--7-------10-------9--(10)--------------|
Bb--8-x8----10-x8----10-(10)--x16---------|
Gb--7-------11-------9--(9)---------------| x 3
Db----------------------------------------|
Ab----------------------------------------|
Eb----------------------------------------|

Eb-------------------------------------------|
Bb---16\14--14\12--12----14\12--12\11--11----|
Gb-------------------------------------------|
Db---14\12--12\10--10----12\10--10\9---9-----|
Ab-------------------------------------------|
Eb-------------------------------------------|

~ Verse ~
Eb----------------------------------------|
Bb----------------------------------------|
Gb--7-------6-----------------------------| x 2
Db--7-x16---7-x16-------------------------|
Ab--5-------7-----------------------------|
Eb---------(5)----------------------------|

~ Pre-Chorus ~
Eb---------------------------------------------------------------------|
Bb---------------------------------------------------------------------|
Gb---------------------------------------------------------------------| x 2
Db----------12------------------12------------------12-----------------|
Ab---9-10-9----9-10-9----9-10-9----9-10-9----9-10-9----9-10/7----------|
Eb---------------------------------------------------------------------|

~ Chorus ~
Eb--7-------10-------9--(10)--------------|
Bb--8-x8----10-x8----10-(10)--x16---------|
Gb--7-------11-------9--(9)---------------| x 3
Db----------------------------------------|
Ab----------------------------------------|
Eb----------------------------------------|

Eb-------------------------------------------|
Bb---16\14--14\12--12----14\12--12\11--11----|
Gb-------------------------------------------|
Db---14\12--12\10--10----12\10--10\9---9-----|
Ab-------------------------------------------|
Eb-------------------------------------------|

~ Guitar Solo ~
Eb------------------------------------------------------|
Bb--15-15-15-15-15-15-15-15//10-10-10-10-10-10-10-10----|
Gb------------------------------------------------------|
Db------------------------------------------------------|
Ab------------------------------------------------------|
Eb------------------------------------------------------|

Eb-----------------------------------------------------------------------|
Bb--8-8--10-10--7-7--8-8---5-7-5-7----7-8b--7--5-7-5---8b-7--5h7p5-------|
Gb------------------------------------------------------------------7----|
Db-----------------------------------------------------------------------|
Ab-----------------------------------------------------------------------|
Eb-----------------------------------------------------------------------|

Eb----------------------------------------------|
Bb--5b----------5-------------------------------|
Gb------7--6-7-----7----/12-12-12-12/14-14-14-14|
Db----------------------------------------------|
Ab----------------------------------------------|
Eb----------------------------------------------|

Eb-----------------------------|
Bb-/12-12-12-12/14-14-14-14----|
Gb-----------------------------|
Db-----------

Wild And Wasted Waters Acoustic Chords – Kill It Kid

 I created this acoustic version that sounds good to my ears as I play along with 
the recorded version by the band. 

Capo on 3rd Fret

 Am C 
Strange things happening in the land.
 Em Am 
Strange things happening in the land.
 Am C 
Wars going on. Hold our heart to mourn.
 Em Am 
Strange things happening in the land.

 Am C 
Wild and wasted waters.
(Strange things happening)
 Em Am 
Wild and wasted waters.
(Wars going on.)
 Am C 
Wild and wasted waters.
(Strange things happening.)
 G  (repeated with quick strums)  Am Am C Am Am Am C Am  
Have come to carry me, carry me on.

 Am                                                
Carry me on, my mother's prayers.
 C 
Carry me on, my mother's prayers.
 Em Am 
Dark waters have come to carry my cares, 
 F G Am 
So take me on my mother's prayers.
 Am 
Don't you leave no candle to burn.
 C 
Don't leave no candle, to burn.
 Em Am 
I leave with the waves, 'neath the stern.
 F G Am 
Don't you leave no candle to burn.

 Am C 
Wild and wasted waters.
 Em Am 
Wild and wasted waters.
 Am C 
Wild and wasted waters.
 G Am 
Have come to carry me on.

 Am 
I'll leave with the evening on my breath.
 C 
I'll leave with the evening on my breath.
 Em Am 
You'll find my letters when I've left.
 F G Am 
I'm gonna leave. The evening on my breath.

 Am 
I won't remember the fires of home
 C 
Won't remember the fires of my home.
 Em Am 
My homeless bones churn them ragged stones.
 F G Am 
I won't remember fires of my home.

 Am C 
Wild and wasted waters.
 Em Am        
Wild and wasted waters.
 Am C 
Wild and wasted waters.
 G Am 
Have come to carry me on.

Solo:  Am C Em Am Am C G Am Am 
May the sickness of my heart be told.
 C 
May the sickness of my heart be told.
 Em  (single strum)                       Am (single Stum)     F (single strum)
Let it bleed out in the coffee shop and stagger in the road.
 G Am 
May the sickness of my heart be told.

 Am C 
Wild and wasted water
 Em Am 
Wild and wasted water
 Am C 
Wild and wasted water.
 G                            
Have come to carry me -
 G Am Am C 
Carry me on, carry me on, 
 G Am 
Carry me - yes, on.

 Am C Em Am Am C G Am

Musik Sollte Immer Ein Schoenes Hobby Bleiben Chords – Kettcar

 Musik sollte immer ein schönes Hobby bleiben - kettcar (Deiche Maxi Single)
---------------------------------------------------------------------------
Tabbed by Zab23*

Intro/Strophe/Refrain:
 C Em Am Dm F G Dm Bb 

oder ganz genau**
 C - C9 - C - Em - Em7 - Em - Am - Asus4 - Am - Dm -Dm11- Dm - F - Dm7 - F - G -G+- G11 - Dm -Dm11- Dm - Bb C C9 C       
Wir sind ein Säulendiagramm in irgendeinem Laptop
     Em Em7 Em         
Wer zuviel erkannt hat, macht das er wegkommt
      Am Asus4 Am 
„Und wer hält dagegen, wenn es drauf ankommt?"
 Dm                           Dm11
fragt dich dann der Joschka Fischer des Punkrocks
     F Dm7 F  
Die Jeanne d’Arc des Popsongs, die niemandem hilft
 G G +            G11 
Opa ist tot – der es nicht will
 Dm             Dm11          Dm 
Peter Pan ist alt und will sterben
 Bb 
Jetzt bitte alles nur keine Beschwerden

 C  ...
Genug gejammert, genug gelitten
Wegen 5 Mark Eintritt die Nacht lang gestritten
Und die Hähne von damals, wo sind sie geblieben
Gestern 5 Mark, heute BAT 7
Das gleiche Verständnis von Kunst und Kultur
Seit 20 Jahren, das Problem ist halt nur
Seit 10 Jahren fährst du pünktlich zur Arbeit
Peter Pan ist alt und braucht Wahrheit

Refrain: (gleiche Akkorde)
   C Em    
Badam Badam Badam Badam Badam
                               Am 
Bevor dein Herz hier jetzt zerbricht
                           Dm         
Badam Badam Badam Badam Badam
                            F 
Ist das jetzt wichtig oder nicht
                           G 
Badam Badam Badam Badam Badam
                                Dm 
Bevor dein Herz hier jetzt zerbricht
                           Bb 
Badam Badam Badam Badam Badam
                            C 
Ist das jetzt wichtig oder nicht

Weil Wörter hier jetzt gar nichts bedeuten
Ein Raum gefüllt mit 1000 Leuten
Keiner der nervt, keiner zerstört
Und die neuen Songs hat noch keiner gehört
Dann die beste Zeile, die leiseste Stelle
Ein Song kommt vom Dunkeln ins Helle
Aus 3 werden 5 – Dies ist meine Musik
Aus 5 werden mehr – es wird deine Musik

Kein Opinionleader und kein Bekannter
Kein Multiplikator, kein Seelenverwandter
Keine miesen Tricks, kein dreckiges Dealen
Kein Säulendiagramm, kein Einer-Von-Vielen
Niemand ist heilig – kein Glaubensbekenntnis
Und du meinst zu mir mit der großen Erkenntnis
„Musik und Leben sind zwei paar Schuhe“
dass ich nicht lache – lass mich in Ruhe

Ref:
Bevor dein Herz hier jetzt zerbricht
Ist das jetzt wichtig oder nicht

Bevor dein Herz hier jetzt zerbricht
Ist das jetzt wichtig oder nicht


**
   C9 Em7  Asus4Dm11  Dm7 G +   G11    (und  F  als mini-Barré)
e|-0---0---0-----3----1---3---3--|
h|-3---3---3-----3----3---3---1--|
g|-0---0---2-----2----2---0---0--|
d|-2---2---2-----0----3---0---0--|
a|-3---2---0-----0----0---2---2--|
e|-0---0---0-----0----0---3---3--|

**24.07.2013, wahrscheinlich waren die Akkorde einmal im GHvC-Forum
verfügbar, da ich die Hauptakkorde schon lange kannte; ich hab versucht sie
hier nocheinmal zu ergänzen. Trotzdem dank ich dem Forum und natürlich 
Marcus Wiebsuch für eins der besten kettcar-Lieder.

Things She Said Chords – Kent

 Intro:
| C     | Am     | Fmaj7   | Fmaj7   | 4x


 C Am Fmaj7 
  Down under water I´m pale blue
 C Am Dm Dm/C G/B 
  Deep down the chlorine smells like you

           G Am 
  Was it you that held too tight?
           G C 
  Was it me that was too weak?
           Fmaj7 Am 
  I will leave you where you lay
             G Fmaj7 
  While I slip and slide away

 C Am Fmaj7 
  Behind my wristwatch the skin is white
 C Am Dm Dm/C G/B 
  Behind my wristwatch where winter hides

           G Am 
  Was it you that held too tight?
           G C 
  Was it me that was too weak?
           Fmaj7 Am 
  I will leave you where you lay
             G Fmaj7 
  While I slip and slide away

                Am G Fmaj7 C 
  The little things that she says   (What do they say to me)
                Am G Fmaj7 C 
  The little things that she does   (What do they do to me)
                Am G Fmaj7 C 
  The little things that she says   (What do they say to me)
                Am G Fmaj7 
  The little things that she does

| G     | Dm     | Am     | G      |
| G     | Dm     | Fmaj7  | Fmaj7  |


e|----------------|----------------|----------------|----------------|
H|----------------|----------------|----------------|----------------|
G|----------------|----------------|----------------|----------------|
D|----------------|----------------|----------------|----------------|
A|-7-7-77-55-5-55-|-7-7-77-88-8-88-|----------------|----------------|
E|----------------|----------------|-8-8-88-77-7-77-|-3-3-33-11-1-11-|

e|----------------|----------------|----------------|-------------|
H|----------------|----------------|----------------|-------------|
G|----------------|----------------|----------------|-------------|
D|----------------|----------------|----------------|-------------|
A|-7-7-77-55-5-55-|-7-7-77-88-8-88-|----------------|----5--7--8--|
E|----------------|----------------|-8-8-88-77-7-77-|-8-----------|

| C     | Am     | F      | F     | 2x

e|-----------------|
H|-----------------|
G|--9-7-5-5/17-----|
D|-----------------|
A|-----------------|   4x
E|-----------------|

/ = glid upp, detta spelas med en E-bow, det är som ett
    elektriskt "plektrum" som sätter strängen i rörelse

                Am G Fmaj7 C 
  The little things that she says   (What do they say to me)
                Am G Fmaj7 C 
  The little things that she does   (What do they do to me)
                Am G Fmaj7 C 
  The little things that she says   (What do they say to me)
                Am G Fmaj7 
  The little things that she does

 C 

Kommentar:  C  = 332010,  Fmaj7  = x33210

________
Taken from: http://kent.nu/latar/things-she-said/

Rigamortis Tabs by Kendrick Lamar

 KENDRICK LAMAR
RIGAMORTIS
SECTION.80
Tabbed by: marshalljenkins

Hey guys, this is a great song from Kendrick. That sample is pretty ill, yeah?
Well, here's the notes for that sample.
You might want to use hammer ons and pull offs, that trumpet is pretty fast... listen to 
the song for timing!

Play this

e|-10-12-10-------10----12-10-----------------------|
B|----------13-10-------------13-10----8-10---------|
G|--------------------------------------------------|
D|--------------------------------------------------|
A|--------------------------------------------------|
E|--------------------------------------------------|

Then This

e|-10-12-10-------10----12-10------------------------|
B|----------13-10-------------13-10----8-10---10-13--|
G|---------------------------------------------------|
D|---------------------------------------------------|
A|---------------------------------------------------|
E|---------------------------------------------------|

The entire note sequence of the sample is as follows: D E D C A D E D C A G A, D E D C A 
D E D C A G A A C. Play it anywhere on the fretboard!

The background trumpet goes G F# G A. B(maybe a bend?) F# G A

It may not be absolutely correct, but it's pretty close.

Either way, very cool riff. Enjoy!

Yuzsuz Yurek Chords – Kenan Dogulu

 Am Em 

Kalmisim kendi kendime ben harabe
 Am Em 
Aklim basima geldi, bir daha tövbe
 F Em 
En cok üzüldügüm konu, gözünden düstüm
 F Em 
Sana rezil olmak inan bitirdi beni

 Am Em 
Görmezlikten gelince cok üzdün beni
 Am Em 
Yabanci bir adam hissettim kendimi
 F Em 
Sanki o ben degildim, seninle aglayan
 F Em 
Seninle sevisip aska doyan

 Em F 
Bazen seytan diyor ki, git yanas suna
 Em F 
Anlat icinden gecenleri
 Em F 
Tut yüreginden sikica ak hayatina
 G F Em 
Ama nerde bende o yüzsüz yürek
 G F Em 
Bizde varsa yoksa gururdan yelek

Tutamiyorum Zamani Chords – Kenan Dogulu

 Am G Am 
İnadina yenilmeden asik olmadan gel
 Am G Dm 
Bu gidisin sonu kötü kalbi kaybetme gel
 Dm Am              
Siyahini birak da gel derdi sil yeter
 Dm Am 
Aska zulmedip küsmesen yeter
 E 
Safagim kararir daralir geceler
 Am G Am 
Yerine hic beni koyup sarhos oldun mu sen?
 Am G Dm 
Kaderine boyun egip düne küstün mü sen?
 Dm Am 
Yüregine cayir cayir kor cile sacip 
 Dm Am 
Göz göre göre korku saklayip 
 E 
Bogazina gömülüp sustun mu hic?
 Am Dm 
Kal gittigin yerde mutlu ol
       E Am 
Ya da gel kalbimde tahta sahip ol
      Am Dm 
Senin gülen yüzüne kurban bu serseri kalbim 
     E Am 
Ama karar ver tutamiyorum zamani

Guzeller Icinden Chords – Kenan Dogulu

 Bm 
Bi yerlerde senlik olsa
 Bm 
Sebeplensek eglensek
 Bm 
Felekten bir gece calsak
 G - A - Bm 
Oooooo
 Bm 
Dir dir edip söylenmesen
 Bm 
Kanter icinde eglensek
 Bm 
Son gülenin hatrina
 G - A - Bm 
Oooooo
 Bm 
Güzeller icinden
 Bm 
Bir seni sectim
 Bm 
Kalbimi sana
 G A Bm 
Ben sana verdim
 Em 
Bilmez olaydim
 Em 
Sevmez olaydim
 Em 
Görmez olaydim
 Em G A Bm 
O güzel gözlerini
 Em 
Bilmez olaydim
 Em 
Sevmez olaydim
 Em 
Duymaz olaydim
 Em G A Bm 
O güzel sözlerini

Elveda Meyhaneci Chords – Kenan Dogulu

 Bm Em  
 Elvada meyhaneci artik kalamiyorum 
  F# Bm   
 Bir baskayim bu aksam sarhos olamiyorum  
  
  F# Em  
 Her gece ayni mey bir tat alamiyorum 
                       F# Bm  
 Allahim bu nasil sey sarhos olamiyorum 
  
  Bm Em  
 Ne yerde ne gokteyim bir garip seferdeyim 
  F# Bm   
 Asikmiyim ben neyim sarhos olamiyorum 
  
  F# Em  
 Her gece ayni mey bir tat alamiyorum 
                        F# Bm  
 Allahim bu nasil sey sarhos olamiyorum

Bas Harfi Ben Chords – Kenan Dogulu

 İntro;
 Bm Em A D G Em F# Bm Em A D G Em F# Bm  sus
 Bm A Em 
Gidince anliyorum, her seyini özlüyorum
 D F#m Bm 
Tenin benim gibi, kokunu icime istiyorum
 Bm A Em 
Öpünce anliyorum; ben seninle yasiyorum
 D F#m              Bmsus
Gün birden beri kac kere vuruluyorum
 Bm Em 
Birden bire hayatinin tümü oldun
 A D 
Gecelerine gün gibi dogdun
 G Em Bm F# 
Gidersen bir gün  biri üzülür cok
 Bm Em 
Hayatinin tümü oldun
 A D 
Gecelerine gün gibi dogdun
 G Em Bm F# 
Gidersen bir gün biri kirilir cok
 Em F#m Bm 
Adi lazim degil, bas harfi ben
 Bm A Em 
Festival gibisin katilmak istiyorum
 D F#m Bm 
Önlerden yer kapip, gözünü kalbime bekliyorum
 Bm A Em 
Asaletinin bedeli, cok kölen var belli 
 D F#m Bm 
Hem biraz deli, azdan cok da serseri
 Em F#m           Bmsus
Adi lazim degil bas harfi ben
 Bm Em               
Birden bire hayatinin tümü oldun
 A D 
Gecelerine gün gibi dogdun
 G Em Bm F# 
Gidersen bir gün  biri üzülür cok
 Bm Em 
Hayatinin tümü oldun
 A D 
Gecelerine gün gibi dogdun
 G Em Bm F# 
Gidersen bir gün biri kirilir cok
 Bm Em               
Hayatinin tümü oldun
 A D 
Gecelerine gün gibi dogdun
 G Em Bm F# 
Gidersen bir gün  biri üzülür cok
 Bm Em 
Hayatinin tümü oldun
 A D 
Gecelerine gün gibi dogdun
 G Em Bm F# 
Gidersen bir gün biri kirilir cok
 Em F#m          Bmsus
Adi lazim degil, bas harfi ben
 Bm Em               
Birden bire hayatinin tümü oldun
Solo;
 A D G Em F# Bm Em A D G Em F# Em F#m Bm 
Adi lazim degil, bas harfi ben     )   X4

Jesus Draw Me Ever Nearer Chords – Keith Getty

 (Capo 1)
      A7 D G D 
1. Jesus,   Draw me ever         near-er
2. Jesus,   guide me through the temp-est
3.  Let the treasures of the     tri-umph
    D G D 
1. As I      la-bor through the storm
2. Keep me  spir-it stayed and  sure
3. Form with-in me as I          go
     G D G D 
1. You have  called me to this    pas-sage
2. When the   mid-night meets the mor-ning
3. And at the end of this long    pas-sage
     D G D 
1. And I'll fol-low, though I'm worn
2. Let me   love you even       more
3. Let me   leave them at your throne

Chorus:
  D A D A 
May this jour-ney bring the bles-sing
  D G D A 
May I rise on wings of faith
  G D G D 
and at the end of my hearts test-ing
            G D 
with your like-ness let me wake

Resurrection Hymn Chords – Keith And Kristyn Getty

 Resurrection Hymn (See What a Morning) – Keith Getty

Verse 1:
 C G F C 
See, what a morning, gloriously bright
 G Am F C F C G 
with the dawning of hope in Jerusalem
 C G F C 
folded the grave clothes, tomb filled with light
 G Am F C F C G G7 
As the angels announce Christ is risen!

     G F C F C 
See God's salvation plan, wrought in love,
 F C F C G C G F C 
borne in pain, paid in sacrifice, fulfilled in Christ, the Man,
 F C F C G C G F C 
for He lives: Christ is risen from the dead


Verse 2:
 C G F C 
See Mary weeping, “Where is He laid?”
 G Am F C F C G 
As in sorrow she turns from the empty tomb;
 C G F C 
Hears a voice speaking, calling her name;
 G Am F C F C G G7 
It’s the Master, the Lord raised to life again!

          G F C  
The voice that spans the years,
 F C F C F C G 
Speaking life, stirring hope, bringing peace to us,
 C G F C  
Will sound till He appears,
 F C F C G C G F C 
For He lives: Christ is risen from the dead!


 
Verse 3:
 C G F C 
One with the Father, Ancient of Days,
 G Am F C F C G 
Through the Spirit who clothes faith with certainty.
 C G F C 
Honor and blessing, glory and praise
 G Am F C F C G G7 
To the King crowned with pow’r and authority!

     G F C  
And we are raised with Him,
 F C F C F C G 
Death is dead, love has won, Christ has conquered;
 C G F C  
And we shall reign with Him,
 F C F C G C         
For He lives: Christ is risen from the dead!


Awesome song!! Quick chord changes.
God Bless :)
Penguin.3

Come People Of The Risen King Chords – Keith And Kristyn Getty

 Come People of the Risen King - by Keith and Kristyn Getty

Verse 1:
 G Em                          
Come people of the risen King
        C D                        
who delight to bring Him praise
       G Em                    
Come all and tune your hearts to sing,
         C G  
to the Morning Star of grace
            C G                    
From the shifting shadows of the earth
          C D 
we will lift our eyes to Him
         G Em                 
Where steady arms of mercy reach
     C G 
to gather children in


Chorus:
    D C D C 
Rejoice, Rejoice! Let every tongue rejoice!
      D Em C D G 
One heart, one voice.  O Church of Christ, rejoice!


Verse 2:
        G Em                 
Come, those whose joy is morning sun
            C D                        
and those weeping through the night
        G Em                 
Come, those who tell of battles won,
           C G 
and those struggling in the fight
          C G                        
For His perfect love will never change,
           C D 
and His mercies never cease
       G Em                  
But follow us through all our days,
           C G 
with the certain hope of peace


Verse 3:
        G Em                
Come, young and old from every land,
          C D                        
men and women of the faith
        G Em                    
Come, those with full or empty hands,
           C G 
find the riches of His grace
       C G                     
Over all the world His people sing,
           C D 
shore to shore we hear them call
      G Em               
The Truth that cries through every age,
       C G 
“Our God is all in all”!


I really like this song. I hope you like it too!!
God Bless :)
Penguin.3

Battle Hymn Of Love Chords – Kathy Mattea

 Verse1:
        A             
I will pledge my heart to the love we share
                          E A 
Through the good and the bad times, too.

I'll forsake my rest for your happiness
                    E A 
To my death I will stand by you.


Chorus1:
    D A  
As God is my witness, this vow I will make
                                      E  
To have and to hold you, no other to take
     A D  
For rich or for poor, under skies grey or blue
       A E A 
To my death I will stand by you.


Verse2:
           A                          
There are wars and there are rumours of wars yet to come
                   E A  
Temptations we'll have to pass through
                                      
Though others may tremble, I will not run
                    E A  
To my death I will stand by you.

Chorus2:
        D A     
I will put on the armour of faithfullness
                              E 
To fight for a heart that is true
          A D 
Till the battle is won, I will not run
       A E A       
To my death I will stand by you.

[repeat chorus1]

tag:
          A D 
Till the battle is won, I will not run
       A E A       
To my death I will stand by you.