Month: August 2013

The One Tabs by Meg And Dia

 Song:    The One
Artist:  Meg and Dia
Album:   It’s Always Stormy in Tillamook
Video:   http://www.youtube.com/watch?v=rTZXCI5YtUk
Author:  Marianne V. (mariannemvelasco@gmail.com)


The notes for the intro/verses are tabbed out below (played with slight variation 
throughout) and the chords played in the chorus/bridge are as follows:

F     133211
C     x32010
Dm    xx0231
Bb5   x133xx
G5    355xxx

INTRO
-----

    F                   Am                   C                     Bb5
e|--1--------|--0h1--1--0--|--------------|---------------|--------x--|
B|--1---1----|--1----1--1--|--3h5p3--1----|--1----1--1h3--|--------x--|
G|--0h2------|--2----2--2--|-----------2--|---------------|--------3--|
D|--3-----3--|--2----2--2--|--------------|--0h2--2--2----|-----3--3--|
A|--3--------|-------------|--------------|--3----3--3----|--1-----1--|
E|-----------|-------------|--------------|---------------|-----------|


VERSE 1
-------

    F                   Am                   C            Cadd9       Bb5
e|--1--------|--0h1--1--0--|--------------|------------------|--------x--|
B|--1---1----|--1----1--1--|--3h5p3--1----|--1----1--1h3--3--|--------x--|
G|--0h2------|--2----2--2--|-----------2--|------------------|--------3--|
D|--3-----3--|--2----2--2--|--------------|--0h2--2--2----2--|-----3--3--|
A|--3--------|-------------|--------------|--3----3--3----3--|--1-----1--|
E|-----------|-------------|--------------|------------------|-----------| x2

     Just go, just walk away 
     So bittersweet, you're already far away   
     Take with you our memories 
     They're opening like summer flowers


CHORUS  
------
F C Dm Bb5 
F C Dm Bb5 F
                   
     Don't you be fooled 
     I loved you more 
     Than I would ever dare tell you
     I'd ever dare tell you
     I'll let you go 
     I'm only holding you back 
     You're more than a small town 
     You're more than a small soul  


VERSE 2  
-------

    F                      Am                   C            Cadd9       Bb5
e|--1--------1--|--0h1--1--0--|--------------|------------------|--------x--|
B|--1---1----1--|--1----1--1--|--3h5p3--1----|--1----1--1h3--3--|--------x--|
G|--0h2------2--|--2----2--2--|-----------2--|------------------|--------3--|
D|--3-----3--3--|--2----2--2--|--------------|--0h2--2--2----2--|-----3--3--|
A|--3--------3--|-------------|--------------|--3----3--3----3--|--1-----1--|
E|--------------|-------------|--------------|------------------|-----------| x2

     Close those pretty eyes, don't look behind
     What did I tell you?  
     That past is past, don't let it follow you
     Don't think, that by any day
     I'll forget your face
     How could one forget you? 


CHORUS
------
F C Dm Bb5 
F C Dm Bb5

     Don't you be fooled 
     I loved you more 
     Than I would ever dare tell you
     I'd ever dare tell you
     I'll let you go 
     I'm only holding you back 
     You're more than a small town 
     You're more than a small soul  


BRIDGE
------
G5 C F Bb5

     Hard to let go of something once you get hold of it
     Once you get hold of it, yeah

G5 Bb5 G5 C

     Don’t you think for a moment
     Don’t you think for a moment, yeah
     Don’t you think for a moment
     That you aren’t worth all of it


CHORUS
------
F C Dm Bb5 
F C Dm Bb5

     Don't you be fooled 
     I loved you more 
     Than I would ever dare tell you
     I'd ever dare tell you
     I'll let you go 
     I'm only holding you back 
     You're more than a small town 
     You're more than a small soul  

          F
     Just go

          C
     Just walk away

No Worries Chords – Mcfly V5

 I think this is originally sung with the capo on the third fret, but you can put 
it wherever feels most comfortable - I personally prefer it on fifth. I'm sorry if 
any of this is wrong, as this is my first tab :)


 G D 
We ran past strawberry fields and smelt the summertime 
 Em C D 
When it gets dark I’ll hold your body close to mine 
 G D 
And then we’ll find some wood and hell we’ll build a fire 
 Em C D 
And then we’ll find some rope and make a swinging tyre 

          C D G 
Captivated by the way you look tonight 
         D Em D A C 
The light is dancing in your eyes, your sweet eyes 

                                         G D 
It’s times like these we’ll never forget 
                         C D 
Stayin out to watch the sunset 
 Em D C 
I’m glad I shared this with you 
               G D 
Cause you set me free 
                                       C D 
Showed me how good my life could be 
 Em D C 
How could this happen to me? 

(Same as verse 1)
And then I’ll swing you girl until you fall asleep 
But when you wake up you’ll be lyin next to me 
We’ll go to Hollywood, make you a movie star
I want the world to know how beautiful you are 

Captivated buy the way you look tonight 
The light is dancing in your eyes, your sweet eyes yeah

(Same as 1st chorus)
It’s times like these we’ll never forget 
Stayin out to watch the sunset 
I’m glad I shared this with you 
Cause you set me free 
Showed me how good my life could be 
How did you happen to me? 

 G D 
There are no secrets to be told 
 C D G 
Nothing we don’t already know 
                    Em 
(bum bum bum) 
                                             A 
We got no fears of growin old 
 C D G 
We got no worries in the world 

 G 
Ba Ba Ba Da Ba Ba Da 
 C A D 
Ba Ba Ba Da Ba Ba Da Baaa Ba Da Baaa [ x4]

Youre Dead Wrong Tabs by Mayday Parade

 You're dead wrong lead tab i'm almost 100% positive its correct since some bits are
harder to hear than others.
In some spots i did not write how many times a note was played i just left a mini space
and wrote on top of that certain part to listen for how many notes are played.

enjoy!

Intro Lead. It just repeats for most of it except at one bit it ends on the 2 just 
before the 5\4/5\4
e|-------------------------------------------------|
B|-------------------------------------------------|
G|-----0-------0----------0------0-----------------|
D|---0---0-------0------0---0--2---2--5\4/5\4------|
A|-3--------2-------2h3----------------------------|
E|-------------------------------------------------|

Lead fill. when it does the 10b each 10 you pick after it is bringing it back down from 
the bend.
e|--------------------------------------------------------------------------|
B|-10b-10-10-10-8---8-10p8---8-10p8-------------------8---10/12\10-7/8\7/8\7|
G|----------------9--------9--------9-7--7-5-4--4-5-7---7-------------------|
D|--------------------------------------------------------------------------|
A|--------------------------------------------------------------------------|
E|--------------------------------------------------------------------------|

Play intro lead again until you get to
She's got broken things where her heart should be but I can tell there are moments...

You then play
Lead fill 2. Listen for timing and how many times to pick certain notes
e|-------------------------------------------------------------------|
B|-------------------------------------------------------------------|
G|-----------------------------------------9p7-7--------7-7h9p7------|
D|-----5-5--5-7/9-7-5-7-5------5-5--5-7/9---------9--7----------7----|
A|-5h7----------------------5h7--------------------------------------|
E|-------------------------------------------------------------------|

e|---------------------------------------------------------------------------|
B|-----------------------------------------------------------------10b-8h10p8|
G|---------------------------------12/14\12--9---------(7)--(7)--7-----------|
D|-----5-5--5-7/9-7-5-7-5----------------------9-7-5-5----5----5-------------|
A|-5h7----------------------7--5h7-------------------------------------------|
E|---------------------------------------------------------------------------|

Lead solo.
e|--------------------------------------------------------------------------|
B|-----8-8-10b-10-10-10-10-8-----8-8----------------------------------------|
G|-7/9-----------------------7/9--------------------------------------------|
D|-----------------------------------7/9-9-7-5-5h7p5-----5-5-----5-5-5/7-5/7|
A|---------------------------------------------------5h7-----5h7------------|
E|--------------------------------------------------------------------------|

e|-------------------------------------------------------------------|
B|-------------------------------------------------------------------|
G|-------------------------------5h7-7h9p7-9h11-11h12p11h12/14\12-11-|
D|-(H)7/9\7-5h7/9/10\9-----5h7p5-------------------------------------|
A|---------------------5h7-------------------------------------------|
E|-------------------------------------------------------------------|

e|---------------------------------------------------------------|
B|-------------------17-----17-----17--20----------22b-------22b-|
G|-11h12p11h12-12/16-19b-19-19b-19-19b----19--17-19-----17-19----|
D|---------------------------------------------------------------|
A|---------------------------------------------------------------|
E|---------------------------------------------------------------|

e|---------------------------|
B|---------------------------|
G|-17h19-16h17-12------------|
D|---------------------------|
A|---------------------------|
E|---------------------------|

Lead fill 3. Played 3 times li

Meine Worte Chords – Maxim

 Artist:  Maxim ( http://www.maximmusic.net )
Song:  Meine Worte
Tabbed by:  flanni78 (he@pixalook.de)
Tutorial: http://youtu.be/Qv4wb9CeZb4

Capo: 5th Fret


Intro:  Am ,  Dm ,  F 


Strophe 1
----------
 Am     
Kalte Nächte auf dem Sofa
                 F Am 
Hätt'? ich doch einfach nichts gesagt 
 Am 
Undurchschaubares Gewissen 
          F Am 
Heute zu schwach - morgen zu stark


Strophe 2
----------
 Am                            
Und nun schaut euch diesen Idiot an 
              F Am  
Geht und verspielt sein ganzes Glück 
 Am 
Setzt alles auf 'ne leere Karte 
              F Am 
Und will es dann wieder zurück


Bridge 1
---------
        G 
Oh wie gern würd ich dir sagen
           Am 
Ich mach alles wieder gut 
      G Am 
Aber so was in der Art sag ich doch immer 
        G 
Nicht dass ich's nicht so meine 
           Am 
Aber wahrscheinlich hast du recht 
              G F Am 
Und ich mach alles nur noch schlimmer


Refrain
--------
       C G Am Am  Asus9  Am 
Meine Worte haben ihr Gewicht verloren, 
       C G Am Am  Asus9  Am 
meine Taten wiegen mehr als je zuvor, 
      C G Am Am  Asus9  Am 
mein Mund hat keinen Plan wovon er spricht, 
        C G Am Am  Asus9  Am 
meine Hände sind nicht gut genug für dich.
        C G Am Am  Asus9  Am 
Meine Hände sind nicht gut genug für dich.


Intro:  Am ,  Dm ,  F 


Strophe 3
----------
 Am 
Schweigend warten auf dein Urteil 
           F Am 
Auf und ab gehen vor der Tür 
 Am 
Hätt' ich ihn bloß für mich behalten 
        F Am 
Diesen sinnlosen Schmerz den du jetzt spürst


Strophe 4
----------
 Am 
Und nun schaut euch diesen Idiot an 
              F Am 
Baut sich ne Sandburg und trampelt sie platt 
 Am 
Und kann dann selber nicht begreifen 
        F Am   
Was er angerichtet hat 


Bridge 2
---------
 G 
Wie gern würd ich dir sagen
        Am  
Sie bedeutet mir doch nichts 
      G Am 
Aber so was in der Art sag ich doch immer
       G 
Nicht dass ich's nicht so meine 
          Am 
Aber wahrscheinlich hast du recht
              G F Am 
Und ich mach alles nur noch schlimmer


Refrain..... 2x


Bridge/Ending
--------------
 G 
Wie gern würd ich dir sagen 
      Am 
Ich kann nicht ohne dich 
      G Am 
aber so was in der Art sag ich doch immer 
       G           
nicht dass ich's nicht so meine 
          Am 
aber wahrscheinlich hast du recht 
              G F Am 
Und ich mach alles nur noch schlimmer

Indio Chords – Matt Mays V2

 This is an awesome song and my first tab hope its close. One of the best musicians 
out there enjoy.



 Em G C 
Yellow yellow moon on the rise
               Bm Em 
In the key of C ten coyotes cry
 Em G C 
Echo echo sound on sound on
 C 
On the spine of the night
 C G 
Won't you take me back home

 G 
Ride free
                                 C 
with them high falcons in the sun
 C 
Ride the thermals on down
 C 
In that ol' 55er
 G 
And the Motor song
 G 
That comfort hum
                   C 
On the AM Radar Love
 C 
Is comin on strong getting you along
 C Em 
Goin' and goin' and gone

 Em G                
Indio won't you take me in?
 G C 
For some of that old fashion
 C Bm 
California sin
 Em 
Oh thems the rules
 Em G 
I don't make'em, gimme the dice
 G 
Watch me shake'm
    C 
If I give myself to you
 C 
Then you gotta give yourself to me
 C G 
Thems the rules

 G                        
And the spirits in the desert are out riding midnight driftin' slow
 G C 
They're just a haze in my headlights
 C 
As I throw it into gear
 C G 
Down that ol'405 love

 G 
I was born on the day that music died
 G 
Now the sun's bustin' open like
 G 
Some powder ship collide
 G C 
And the speed's comin'
 C 
On real strong
 C Em 
Goin' and goin' and goin' and Gone...

 Em G                
Indio won't you take me in?
 G C 
For some of that old fashion
 C Bm 
California sin
 Em 
Oh thems the rules
 Em G 
I don't make'em, gimme the dice
 G 
Watch me shake'm
    C 
If I give myself to you
 C 
Then you gotta give yourself to me
 C G 
Thems the rules

 G 
Run run run you are free now
 C 
Run run run you are free
 G 
Run run run you are free now
 C 
Run run run you are free

 D C G 
You don’t love me cuz I got my Song (??) X4
 G D Am  ?
While your out getting highhh


 Em G                
Indio won't you take me in?
 G C 
For some of that old fashion
 C Bm 
California sin
 Em 
Oh thems the rules
 Em G 
I don't make'em, gimme your hips
 G 
Watch me shake'm
    C 
If I give myself to you
 C 
Then you gotta give yourself to me
 C G 
Thems the rules

    C 
If I give myself to you
 C 
Then you gotta give yourself to me
 C G 
we'll be goin and goin and gone.

Stange Days Tabs by Mat Mchugh

 This is my first tab, I couldn't find it anywhere and it was driving me nuts
so I tried to figure it out. Let me know if there are any mistakes! The same
riff is repeated throughout the song, except for a short bridge which I
couldn't really hear but tried anyway...

Capo 2

Main:

   Am                F               C
e----------------------------------------------------------------------------|
B-----1----------------------------------------------------------------------|
G-----2-----2----------2----2----------------0---------------0---------------|
D-----2-------2--0-----3------3--0-----0h2------------0h2--------------------|
A--0-----0-------------3-------------3-----3---3-2-3-------3---2-------------|
E--------------------1----1--------------------------------------------------|


   Am                F               C
e----------------------------------------------------------------------------|
B-----1----------------------------------------------------------------------|
G-----2-----2----------2----2----------------0---------------0---------------|
D-----2-------2--0-----3------3--0-----0h2------------0h2--------------------|
A--0-----0-------------3-------------3-----3----2-3--------3---2-------------|
E--------------------1----1--------------------------------------------------|


Bridge:

Guitar 1:
e----------------------------------------------------------------------------|
B------------------------------------------------------1---------------------|
G---------------------0------------0---------0---------0---0-----------------|
D----------0-------0---0-------0----0-----0---0--------2-----2--0------------|
A----0h2----------2-----------2----------2-------0-2-3-----------------------|
E--3-----3-----3-----------3-----------3--------3----------------------------|

           ...start at main again

Guitar 2:
e----------------------------------------------------------------------------|
B---3--3--x-----0---0h1--1--x-----0----3--3--x-----0---0h1--1--x-----0-------|
G------------0-----------------0----------------0-----------------0----------|
D----------------------------------------------------------------------------|
A----------------------------------------------------------------------------|
E----------------------------------------------------------------------------|

No One Left To Blame Tabs by Mat Mchugh

 No one left to blame. 
(Mat Mchugh)
*Cifras e Tablaturas por Lucas Alves.

Afinação padrão
(Obs: A gravação da musica, e como o proprio Mat Mchugh toca, é tocado em um  
violão afinado um tom abaixo, mas fiz um arranjo para ser tocada na afinação padrão).


(Solinho da introdução, 1ª e 3ª parte da musica) 

     F                             B                            F(repete)
E|------1------------------------------x----------------------------1-------|
B|------1--1/3-3-1-1-------------------3----------------------------1-------|
G|------2-------------0h2-2-0-2--------3----------------------------2-------|
D|------3------------------------------3----------3----5-3----------3-------|
A|------3--------------------------1---1----3/5-5----5-----5-3------3-------|
E|---1--1-------------------------------------------------------1---1-------|


(1ª parte)
And when the stars are busy falling at your feet
Would you be busy calling after me
Would i be anywhere you wanna go
Would you say anything to give me hope
I dream that under water i can breathe
I dream to come the day i'll be released
Been drowned about the beating of my heart

(variação)*
I'd sleep, but i could fall apart

*    C                       F
E|--x/0---------------------x/0---|
B|--5/0---------------------10/0--|
G|--5/0----/5-7--5----------10/0--|
D|--5/0----/5------7--5-----10/0--|
A|--3/0-------------------8-8/0---|
E|--------------------------------|


(Solo da 2ª e 4ª parte da musica)
              
                Dm
e|----------------x------|   
B|----------------6------|
G|----------------7------|
D|----------------7------|
A|-------10-----5-5------|
E|---/12---12------------|

                G
e|----------------x------|   
B|----------------3------|
G|----------------4------|
D|----------------5------|
A|-------8--------5------|
E|---/10--10----3-3------|


(2ª parte)
                   Dm
It's killing me slow
            G
This weight on my shoulders
                  Dm
Been breaking my bones
                G
Been hoping you know this


(refrão)
You know this mean go
Or would you away from me
Or would you take your time,
Turn and walk away
And leave me stay behind
So tell me do you know?
If you would feel the same
With no one left to go
With no one left to...
   

           A  G  F                    F  G  Bb
e|-------------x--|       e|------------x---|        
B|-------------1--|       B|------------6---|
G|-------------2--|       G|------------7---|
D|-------------3--|       D|------------8---|
A|-------------3--|       A|------------8---|
E|---5--3--1-1-1--|       E|--1—-3—-6-6-6---|
     “You know this mean go”   “Or would you away from me”


           Bb  A   G                   G  A  C
e|-------------x--|       e|------------x---|        
B|-------------3--|       B|------------8---|
G|-------------4--|       G|------------9---|
D|-------------5--|       D|------------10--|
A|-------------5--|       A|------------10--|
E|---6--5--3-3-3--|       E|--3—-5—-8-8-8---|
 “Or would you take your time,”    “Turn and walk away”

           C  G  F                     F  G  Bb
e|-------------x--|       e|------------x---|        
B|-------------1--|       B|------------6---|
G|-------------2--|       G|------------7---|
D|-------------3--|       D|------------8---|
A|-------------3--|       A|------------8---|
E|---8--3--1-1-1--|       E|--1—-3—-6-6-6---|
 “And leave me stay behind”      “So tell me do you know”

           Bb  A  G                    G  A  C
e|-------------x--|       e|------------x---|        
B|-------------1--|       B|------------8---|
G|-------------4--|       G|------------9---|
D|-------------5--|       D|------------10--|
A|-------------5--|       A|------------10--|
E|---6--5--3-3-3--|       E|--3—-5—-8-8-8---|
 “If you would feel the same”    “With no one left to go”

           C  G  F                

Suze Nam Stale Na Put Chords – Massimo

 Massimo
SUZE NAM STALE NA PUT


    F G C 
1. Nije za ljude da ljube zauvijek
    F G C 
   za to još nikada nije nađen lijek
    F G 
   tako mi svega, nije do neba
    C Am 
   i nikada nije tu kad treba
    F G 
   taj nečujni glas, šuti kao i svi



            C 
Ref. Da li voliš me još, to samo zvijezde znaju.
            Am 
     da li govore to u nekom drugom sjaju,
            F G 
     a mi ne vidimo,
                        C G 
     suze nam stale na put.

      C 
     Kako se dogodi to da takva ljubav padne?
             Am 
     Još me probija bol i tvoje riječi zadnje,
           F G 
     a ti ne vidiš to,
                       C 
    suze nam stale na put.




    F G C 
2. I uporno mi se ruga svaki dan
    F G C 
   kad suncem potjeta noć u kojoj zna
           F G 
   Uuuuuu tako mi svega to je do neba
    C Am 
   jer nikada nije tu kad treba
    F G 
   taj nečujni glas, šuti kao i svi






Ref. Da li voliš me još, to samo ....    2x

Breakin Tabs by Masked Intruder

 Preview Tab
Masked Intruder
Breakin'
Masked Intruder
STANDARD TUNNING

Contact:raimundolecompte@gmail.com

/////////////////////////////////////////////////////////////////////////////
This is my first tab. I didnt find any tabs online of this song and
decided to tab it out. I tried to make it as understandable as possible,
 so I hope you enjoy. Also, I also tabbed out the bass line, its pretty
much the same but it has a few licks on it, so if anyone wants me to
post that I surely will.
      -RLecompte
/////////////////////////////////////////////////////////////////////////////
INTRO
E-----------------------------------------------|(x2)
B--4--------4--------4--------2-----------------|
G----4--------4--------4--------3---------------|
D------4--------6--------6--------4-------------|
A-----------------------------------------------|
E-----------------------------------------------|

VERSE
E-----------------------------------------------|(x2)
B-----------------------------------------------|
G--44444----------------------------------------|
D--44444--4444--2222--6666----------------------|
A--22222--4444--2222--6666----------------------|
E---------2222--0000--4444----------------------|

PRE-VERSE/CHORUS
E-----------------------------------------------|
B-----------------------------------------------|
G-----------------------------------------------|
D--22222222--444---22222222--444----------------|
A--22222222--444---22222222--444----------------|
E--00000000--222---00000000--222----------------|

2nd VERSE/CHORUS
E-----------------------------------------------|(x2)
B-----------------------------------------------|
G--44444----------------------------------------|
D--44444--4444--2222--6666----------------------|
A--22222--4444--2222--6666----------------------|
E---------2222--0000--4444----------------------|

PRE-VERSE/CHORUS
E-----------------------------------------------|
B-----------------------------------------------|
G-----------------------------------------------|
D--22222222--444---22222222--444----------------|
A--22222222--444---22222222--444----------------|
E--00000000--222---00000000--222----------------|

INTRO
E-----------------------------------------------|(x2)
B--4--------4--------4--------2-----------------|
G----4--------4--------4--------3---------------|
D------4--------6--------6--------4-------------|
A-----------------------------------------------|
E-----------------------------------------------|

PRE-VERSE/CHORUS
E-----------------------------------------------|(x2)
B-----------------------------------------------|
G-----------------------------------------------|
D--22222222--444---22222222--444----------------|
A--22222222--444---22222222--444----------------|
E--00000000--222---00000000--222----------------|

LAST CHORUS
E-----------------------------------------------|(x4)
B-----------------------------------------------|
G--44444----------------------------------------|
D--44444--44444--66666--22222-------------------|
A--22222--44444--66666--22222-------------------|
E---------22222--44444--00000-------------------|

  End on:
E--------------------|
B--------------------|
G--1-----------------|
D--2-----------------|
A--2-----------------|
E--0-----------------|

NOTE: I prefer playing the part as in the actual chord,
 but if you want to end it in a power chord its perfectly fine.

All Gone Chords – Marquess

 created: Joshua Makoschey
E-mail: joshuamakoschey@gmx.de

Have Fun!! :)


Intro:  C9  |  D  |  Dsus4  |  D  |  C9  |  D  |  Dsus4  |  D 



Verse:

   C9 
I wonder how you feel

      D Dsus4 D 
The moments you're alone

    C9 D Dsus4 
I wonder if it still feels good
 
        D C9 D Dsus4 
No disguise

     D C9 D Dsus4 D 
No more lies

     C9 
The past you just ignore

 D Dsus4 D 
Erase the memories

          C9 D Dsus4 
There's nothing worth to keep at all

      D C9 D Dsus4 
Just forget

     D C9 
No regret



[Refrain]

 Em C7 
You go on like this, I know

                                D 
You cannot resist, time will show

                 Em7 
That whatever happens

      C7 
You move on, we're all gone

 Em C7 
You keep up the act 'til the end

                              D 
It's your way of life, you pretend

                Em7 
That whatever happens

       C7 
You move on, we're all gone


Verse:


     C9 
The ways you can be fooled

        D Dsus4 D 
When choosing not to see

     C9 D Dsus4 
Convince yourself it can't be real

    D C9 D Dsus4 
If it hurts

      D C9 D Dsus4 D 
When it hurts

       C9 
The stories that you told
  
      D Dsus4 D 
The laughter and the smiles

    C9 D Dsus4 
Pretending that you really cared

 D C9 
That you cared



[Refrain]

Interlude:


      D C9 
All gone

      D C9 
All gone

      D C9 
All gone, all gone

one last time [Refrain] :)

Fallout Acoustic Chords – Marianas Trench V2

 Verse:
 D ,  Am ,  G 
Chorus:  G ,  D ,  Am 


Verse:
 D Am          
An empty room,
            G 
I'm empty too
                              D 
And everything reminds me of you
          Am 
So many things
                  G 
I shouldn't have missed

The more that I push
                  D 
And the more you resist
              Am G 
It's easy to say it's for the best

When you want more
                         D  
While you leave me with less
               Am G      
I know you're fine, but what do I do?
 D Am G 
I know you're fine, but what do I do?

Chorus:
 G D 
I'm awake, and trying
 Am 
While you're sleeping like a babe

Beside him
 G D 
I'm on the ledge while you're so
 Am G 
God damn polite and composed
       D Am 
And I know you see me,

And you're making it look so easy
 G D   
What comes and goes,
            Am 
I'd go without

I know you're fine but what about
            G D Am 
(Fallout), Fallout (fallout), fallout (fallout), fallout

Through the Fallout
  G D Am 
(Fallout), Fallout (fallout), fallout (fallout)

You're the fallout

THE REST OF THE SONG IS EXACTLY THE SAME.

Well now there's him,
And now there's me
The secrets you give
And the secrets you keep
And nevertheless
It's never you let
The more that I give
And the less that I get
Don't tell me to fight,
To fight for you
After this long, I shouldn't have to

I know you're fine, but what do I do?
I know you're fine, but what do I do?
I'm awake, and trying
While you're sleeping like a babe
Beside him
I'm on the ledge while you're so
God damn polite and composed
And I know you see me,
And you're making it look so easy
What comes and goes,
I'd go without

I know you're fine but what about
(Fallout), Fallout (fallout), fallout (fallout), fallout
Through the Fallout
(Fallout), Fallout (fallout), fallout (fallout)

I know you're fine but what about
(Fallout), Fallout (fallout), fallout (fallout), fallout
Through the Fallout
(Fallout), Fallout (fallout), fallout (fallout)
You're the fallout

I know you're fine, but what do I do?
I know you're fine, but what do I do?

I know you're fine but what about
(Fallout), Fallout (fallout), fallout (fallout), fallout
Through the Fallout
(Fallout), Fallout (fallout), fallout (fallout)

I know you're fine but what if I
(Fallout)
I'm awake, and trying
While you're sleeping like a babe
Beside him (Fallout)
I'm on the ledge while you're so
God damn polite and composed

(Fallout), Fallout (fallout), fallout (fallout), fallout
Through the Fallout
(Fallout), Fallout (fallout), fallout (fallout), fallout
Through the Fallout
(Fallout) FALLOUT (fallout)
FALLOUT

By Now Chords – Marianas Trench

 Intro:  Bm G A Bm G Bm G    
How've you been? Can I come in?
                     A Bm G 
Just came to get my things and then I guess I'm leaving
            Bm G 
If I could say what you'd like to hear
                     A Bm G 
I'd whisper in your ear it's only temporary
 G 
But I've been taking you for granted

       D A Bm 
And I thought you'd feel the same as me
      G D 
It's time that I come clean, but
 A Bm G D 
But for now can we just both pretend to sleep
     A Bm G D 
Sometimes the one you want is not the one you need
      A Bm 
What goes around don't come around
            G 
You should know me by now

 D A 
Better than, better than, better than

You should know me
 Bm G 
Better than, better than, better than

You should know me
 D A 
Better than, better than, better than

You should know me
 Bm G 
Better than, better than, better than

I should know you as well
 D A 
Better than, better than, better than

You should know me
 Bm G 
Better than, better than, better than

You should know me
 D A 
Better than, better than, better than

You should know me
 Bm 
Better than,
            G 
You should know me by now

(Same as first verse)
(Different stumming pattern. Listen to the song)
Our talk is small, I'm seven inches tall
And you should keep the apartment
So here's my keys, changed all the bills
We're only built to spill and wonder where the heart went
And you've been taking me for granted.

(Same as chorus)
And I thought you'd feel the same as me
It's time that I come clean, but
But for now can we just both pretend to sleep
Sometimes the one you want is not the one you need
What goes around don't come around
You should know me by now

Better than, better than, better than
You should know me
Better than, better than, better than
You should know me
Better than, better than, better than
You should know me
Better than, better than, better than
I should know you as well
Better than, better than, better than
You should know me
Better than, better than, better than
You should know me
Better than, better than, better than
You should know me
Better than,
You should know me by now

 A Bm        
I know that I remember you
   G 
I think that you remember me too
 A Bm G                                            
How can one of us still feel blessed when the other one's lost
 A Bm 
I know you've got to feel the change
    G                                       
It just stays worse when it stays the same
 A Bm G 
How can one of us still feel blessed when the other one's 
 B G A B G  (Intro while singing this)
So lost

By now

DDD DDD AAA AAA BmBmBm BmBmBm GGG GGG

(Chorus)
Sometimes the one you want is not the one you need
What goes around don't come around
Don't you know me by now?

Better than, better than, better than
You should know me
Better than, better than, better than
You should know me
Better than, better than, better than
You should know me
Better than,
I should know you as well
Better than, better than, better than
You should know me
Better than, bett

I Was Made For Loving You Chords – Maria Mena V2

 First verse and chorus are single and bended notes (which are in parentheses).  

Verse 1:

( F# ) bend
 E G   
Tonight, I wanna give it all to you
             D C 
In the darkness there's so much I wanna do
( F# )  Em G 
And tonight I wanna lay at your feet
                              D 
Cause boy I was made for you
                                  C 
And boy you were made for me

Chorus:

( F# ) 
 E                                           ( G )    
I was made for loving you baby
 A                                                 ( G ,  F# )
You were made for loving me
        E                                         ( G ) 
And I can't get enough of you baby
 A 
Can you get enough of me?

(Chords begin)  
La la la  
 Em A  

Verse 2:

 Em G 
Tonight I wanna see it in your eyes
                  D 
Feel the magic
                                                         C                    
There's something that drives me wild
( D )   Em G 
And tonight we're gonna make it all come true
                             D 
Cause boy I was made for you
                                C 
And boy you were made for me

Chorus:
 Em                                                   
I was made for loving you baby
 A                                          
You were made for loving me
     Em           
And I can't get enough of you baby
 A Am 
Can you get enough of me?

La la la  
(Guitar solo)

Bridge 

 C Em A 

Verse 3 Picking again
( F# )  Em G   
Tonight I wanna give it all to you
         D C 
In the darkness there's so much I wanna do


Chorus Chords:
 Em              
I was made for loving you baby
 A         
You were made for loving me
         Em            
And I can't get enough of you baby
 A 
Can you get enough of me?  x2

       Em A                 
la la dum     la la la la la la la

Outro:
       Em A

Zeg Het Maar Chords – Marco Borsato

 Akkoorden:
----------------
 E   = 0-2-2-1-0-0
 A   = x-0-2-2-2-0
 B   = x-2-4-4-4-2
 F#  = 2-4-4-3-2-2
 D   = x-x-0-2-3-5

MAAT 4/4

INTRO:
|  E   |  F#  |  A  | % |

|  E   |  F#  |  A  | % |


VERSE 1:

 E F# 
  Niets in m'n handen
 A E    
  Ik ben zo zwaar als m'n eigen gewicht
               F# A   | % |
Ik leef van de liefde, de lucht en het licht

 E F# 
  Al mijn gedachten
 A E                 
  Ze dansen als bladeren mee met de wind
                 F# A 
  Niets aan mijn hoofd, ben zo blij als een kind

            F# 
Wat is er meer
             A 
Meer nog dan dit
            F# A 
Meer dan de zon die m'n lichaam verhit
            F# D 
Meer dan de tijd die ik bezit

REFREIN:
              E 
Zeg het maar
                  F# 
Ik weet het niet
                 A 
Ik voel het niet
                  B 
En dat komt goed uit want ik hoef het niet
 E F# 
  Ik zoek het niet
                      
  Dus ik vind het niet
 B A E   ?
  Wat ik mis wat er verder is
                 F# 
  Kan me niet schelen
            A 
Ik ben tevreden
                E 
Met helemaal niets
  F# A  |
  Met helemaal niets
 A E  |  F#  |  A  | % |
  Helemaal niets


VERSE 2:
Vrij zijn m'n voeten
Vrij om te gaan en te staan waar ik wil
Vrij om te voelen dat ik van je hou

Vrij om te delen
Alles of niets maakt geen enkel verschil
Dit is mijn hart en ik geef het aan jou

Want wat is er meer
Meer nog dan dit
Meer dan de zon die m'n lichaam verhit
Meer dan de tijd die ik bezit

REFREIN:
              E 
Zeg het maar
                  F# 
Ik weet het niet
                 A 
Ik voel het niet
                  B 
En dat komt goed uit want ik hoef het niet
 E F# 
  Ik zoek het niet
                      
  Dus ik vind het niet
 B A E   ?
  Wat ik mis wat er verder is
                 F# 
  Kan me niet schelen
            A 
Ik ben tevreden
                E 
Met helemaal niets
  F# A  |
  Met helemaal niets
 A E  |  F#  |  A  | % |
  Helemaal niets

            F# 
Wat ik ook doe
            A 
Waar ik ook ga
            F# A  
Ik loop mijn eigen geluk achterna
            F# 
Wat wil ik meer
             D 
Dan dat ik besta

DRUMS: (akkoorden van het refrein  E  /  F#  /  A  /  B )
Zeg het me
Ik weet het niet
Ik voel het niet
En dat komt goed uit want ik hoef het niet, nee
Ik zoek het niet, dus ik vind het niet
Ik ben tevreden met helemaal niets

Ik weet het niet
Ik voel het niet
En dat komt goed uit want ik hoef het niet

Ik zoek het niet, dus ik vind het niet
Ik ben tevreden met helemaal niets

Ik zie het niet
Ik hoor het niet
En dat komt goed uit, want ik hoef het niet, nee

Ik heb het niet, nee
Ik hoef het niet
Ik ben tevreden met helemaal niets       
Helemaal niets
                 E   |  F#  |
Met helemaal niets
   B A E       ?
Wat ik mis, wat er verder niet is
        

Scheissverein Chords – Marc-uwe Kling

 ---------------------------------------
     SCHEIßVEREIN - Marc-Uwe Kling
---------------------------------------
http://www.marcuwekling.de/

Intro:  A Dbm  x2

 A 
Wegen einem Toaster hatte ich ein Konto bei der Deutschen Bank
 Dbm 
Ich wollte es heute kündigen, der sagte "Sie sind 63,30 Euro im Minus, vielen Dank"
 A 
"Ich hab das Konto nie benutzt" rief ich und sah ihn grinsen
 Dbm 
Er sagte "Kontoführungsgebüren und Überziehungszinsen"
 A 
Und dann hörte mich der Mann hinter dem Schalter schreien:
 Dbm 
"Was'n das hier überhaupt für ein Scheißverein?"

 A 
Scheißverein, so ein Scheißverein
 Dbm 
Scheißverein, so ein Scheißverein

Das erzählte ich meiner Freundin dann am Telefon
Na zumindest halb, ja ihr denkt's euch schon
Die Verbindung brach ab, denn ich bin bei O2
Und das die Verbindung ständig abbricht gehört da dazu
Und dann hörte mich die Frau in der Hotline schreien:
"Was'n das hier überhaupt für ein Scheißverein?"

Scheißverein, so ein Scheißverein
Scheißverein, so ein Scheißverein

Und dann bekam ich auch noch Besuch und der war komisch drauf
Die wollten unbedingt auf den Reichstag rauf
Ich blickte auf die Sitzung im Parlament
Auf jene die man Volksvertreter nennt
Und dann musste ich einfach von der Kuppel schreien:
"Ist das die Mitgliederversammlung vom größten Scheißverein?"

Scheißverein, so ein Scheißverein
Scheißverein, so ein Scheißverein

Deshalb verhaftete mich dann die Polizei
Ich sagte "ja ihr habt noch gefehlt, seit auch ein Scheißverei..."
Doch zum letzte Buchstaben, da kam ich nicht
Es spricht sich schlecht mit einem Schlagstock im Gesicht
Und jetzt höre ich alle Nachts in ihren Zellen schreien:
"Was'n das hier überhaupt für ein Scheißverein?"

Scheißverein, so ein Scheißverein
Scheißverein, so ein Scheißverein
Scheißverein, so ein Scheißverein
Scheißverein, so ein Scheißverein

Diese Häufung kann doch kein Zufall sein
Hier und da und überall ein Scheißverein
Bin ich paranoid oder versteht ihr, was ich meine
Ich glaube wir leben im Land der Scheißvereine

Uaaaah
Uaaaah
Uaaaahaaaahuuu

Horsprechgarnitur Chords – Marc-uwe Kling

 --------------------------------------------
     HÖRSPRECHGARNITUR - Marc-Uwe Kling
--------------------------------------------
http://www.marcuwekling.de/

       Bb F Bb E 
Heute morgen fuhr ich U-Bahn, hatte kein Ticket, war abgebrannt
    F Bb 
Da setzte sich jemand neben mich und hat mich blöde Fotze genannt
      Bb F Bb E 
Erst konnt ichs gar nicht fassen, dann hab ich mich total echauffiert
               F Bb 
Dabei hat der Typ doch nur über sein Headset telefoniert

 Bb 
Über sein Headset telefoniert, über sein Headset telefoniert
           F Bb                                 
Über sein Headset telefoniert, über sein Headset telefoniert

"Fahrscheine raus" rief da plötzlich eine miese Kontrolleuse
Ihre Stimme klang echt fiese und ihre Physionomie war böse
Physionomie war böse
Fick dich doch lieber selber, sagte ich, du blöde Missgeburt
Dein Stecher hat zu Hause doch eh schon die ganze Provison verhurt
Da rief sie die Polizei und die fragte, was ist denn hier passiert?
Ich sagte, gar nichts, ich hab doch nur über mein Headset telefoniert

Über mein Headset telefoniert, über mein Headset telefoniert
Über mein Headset telefoniert, über mein Headset telefoniert

Achso sagte die Frau, und ich dachte schon sie meinen mich
Ich sag Leute mit so einem ehrenwerten Beruf beleidige ich doch nicht
Da ging sie und ich rief übrigens gehört ihr alle entnazifiziert
Da zog die Kontrolleuse einen Schlagstock, doch der Polizist hat deeskaliert
Sehen Sie nicht, dass er immer noch telefoniert?

Über sein Headset telefoniert, über sein Headset telefoniert
Über sein Headset telefoniert, über sein Headset telefoniert

Ich hatte ne schöne Idee bei meinem letzten Wutanfall
Ich besorg mir irgendwie Karten für den Bundespresseball
Und wenn die Promis dann netzwerken wegen Ficken und der Konjunktur
Dann zieh ich aus meiner Tasche eine Hörsprechgarnitur

Eine Hörsprechgarnitur, von Beleidigung keine Spur
Ich telefonier doch nur über meine Hörsprechgarnitur

Wenn dein Partner nicht mit dir kopuliert
Dich stattdessen psychoanalysiert
Wenn man beim Schnick-Schnack-Schnuck verliert
Schnell übers Headset telefoniert
Wenn dein Metzger umdatiert
Wenn man dich wegrationalisiert
Wenn man zum Gelöbnis aufmarschiert
Schnell übers Headset telefonier

Wenn wir wos lohnt intervenieren, nennt man das demokratisieren
Das heißt ein bisschen bombadieren und was noch steht privatisieren
Wenn dann Konzerne expandieren, in Mobilfunk investieren
Dann kann es schon passieren, dass alle über Headsets telefonieren

Über Headsets telefonieren, über Headsets telefonieren
Über Headsets telefonieren, über Headsets telefonieren
Über Headsets telefonieren, über Headsets telefonieren
Wenn dich die Borg assimilieren, wenn sie dir ein Headset installieren

Ich hörte von nem Kind, das hing statt an ner Nabelschnur
Schon als es aus seiner Mutter kam an einer Hörsprechgarnitur
Heute arbeitets in nem Callcenter als Putzkraft jede Nacht
Da hat mal wieder jemand nichts aus seinen Anlagen gemacht

Vivir Mi Vida Chords – Marc Anthony

 Bm G D 
   Voy a reír, voy a bailar
           A Bm 
Vivir mi vida lalalalá
         G D 
Voy a reír, voy a gozar
           A Bm 
Vivir mi vida lalalalá

         G D 
Voy a reír (eeso!), voy a bailar
          A Bm 
Vivir mi vida lalalalá
         G D 
Voy a reír, voy a gozar
           A Bm 
Vivir mi vida lalalalá

                   G 
A veces llega la lluvia
 D A 
   Para limpiar las heridas
 Bm G 
   A veces solo una gota
 D A 
   Puede vencer la sequía

         Bm G 
Y para qué llorar, pa' qué
              D A 
Si duele una pena, se olvida
         Bm G 
Y para qué sufrir, pa' qué
              D A 
Si así es la vida, hay que vivirla
      Bm 
Lalalé


 Bm G D 
   Voy a reír, voy a bailar
           A Bm 
Vivir mi vida lalalalá
         G D 
Voy a reír, voy a gozar
           A Bm 
Vivir mi vida lalalalá

 G - D - A - Bm  (x2)

                   G 
Voy a vivir el momento
 D A 
  Para entender el destino
 Bm G 
  Voy a escuchar en silencio
 D A 
  Para encontrar el camino

         Bm G 
Y para qué llorar, pa' qué
              D A 
Si duele una pena, se olvida
         Bm G 
Y para qué sufrir, pa' qué
              D A 
Si duele una pena, se olvida
      Bm 
Lalalé


 Bm G D 
   Voy a reír, voy a bailar
           A Bm 
Vivir mi vida lalalalá
         G D 
Voy a reír, voy a gozar
           A Bm 
Vivir mi vida lalalalá


MI gente!
Toooma!

 Bm G D 
   Voy a reír, voy a bailar
                             A 
Pa' qué llorar, pa' que sufrir
Empieza a soñar, a reír
 Bm G D 
   Voy a reír, voy a bailar
                       A 
Siente y baila y goza
Que la vida es una sola
 Bm G D 
   Voy a reír, voy a bailar
Vive, sigue
   A 
Siempre pa'lante
No mires pa'trás

 Bm - G - D - A  (x2)

 Bm G D 
   Voy a reír, voy a bailar
           A Bm 
Vivir mi vida lalalalá
         G D 
Voy a reír, voy a gozar
           A Bm 
Vivir mi

These Old Wheels Chords – Mandolin Orange

 THESE OLD WHEELS
Capo IV

 G : 320000
 C : 032010 or 332010
 F# ?: 200230
 Em : 022000

Intro: Play G chord, but hammer on the 3 from an open E.  Listen to recording.  He 
also hammers and pull offs a 1 on the B string


 G                                                     Walk-up  C 
Silence is golden some may say, some may say
         C G F# ?
I say silence is an aimless time to kill
       Em F# C   
Its a restless feeling pounding on my brain both night and day
               G F# G 
and these old wheels of mine spin louder as it builds

Repeat for rest of song

Yes the sky would surely fall if my dear eardrum did fail
to beat a single time, in time or out
Some may make it out alright and some may have never known
but these old wheels spin far too loud, far too loud

For I love to hear a chorus from the morning bird choir
and the sounds of coffee boiling on the pot
How I love to hear I love you in a dry morning tone
And just assume that if I can’t these wheels would stop

Yes happy is the day I lay my poor head down
with neither trial nor trouble to compete
with the chirp of summer crickets nor a tree frog’s croak
And these old wheels slow down enough so that I may sleep

Solo is just the chord progression again

Silence is golden some may say, some may say
I say silence is an aimless time to kill
It’s a restless feeling pounding on my brain both night and day
and these old wheels of mine spin louder as it builds

Overcomer Chords – Mandisa V2

 Hey guys! This tab is for Mandisa's new single called, "Overcomer". I got this tab 
by ear, so feel free to correct me! This is NOT in standard tuning. If you want it 
in its standard tuning, then raise the key 3 half steps. ;) Thanks! You guys are awesome!


                       MANDISA - Overcomer
                        Capo on 3rd Fret



Intro:  C G D Em   2x


 C 
Staring at a stop sign
 G 
Watching people drive by
 D Em 
T Mac on the radio
 C 
Got so much on your mind
 G 
Nothing's really going right
 D Em 
Looking for a ray of hope


 C G D Em 
Oooh oooh Whatever it is you may be going through
 C G D                          
Oooh oooh I know He's not gonna let it get the best of you


                 C G 
You're an overcomer
               D Em 
Stay in the fight ‘til the final round
                   C G 
You're not going under
                 D Em 
‘Cause God is holding you right now
               C  
You might be down for a moment
  G 
Feeling like it's hopeless
  D Em 
That's when He reminds You
                     C G 
That you're an overcomer
                D Em 
You're an overcomer


 C               
Everybody's been down
 G 
Hit the bottom, hit the ground
 D Em 
Oh, you're not alone
       C 
Just take a breath, don't forget
 G D 
Hang on to His promises

He wants You to know


                C G 
You're an overcomer
               D Em 
Stay in the fight ‘til the final round
                   C G 
You're not going under
                 D Em 
‘Cause God is holding you right now
               C  
You might be down for a moment
  G 
Feeling like it's hopeless
  D Em 
That's when He reminds You
                     C G 
That you're an overcomer
                D Em 
You're an overcomer


      C  
The same Man, the Great I am
      Am 
The one who overcame death
 Em G D 
Is living inside of You
          C 
So just hold tight, fix your eyes
        Am 
On the one who holds your life
 Em G  
There's nothing He can't do
       D 
He's telling you
              C 
Just take a breath, don't forget
 G D Em                
Hang on to His promises


                C G 
You're an overcomer
               D Em 
Stay in the fight ‘til the final round
                   C G 
You're not going under
                 D Em 
‘Cause God is holding you right now
               C  
You might be down for a moment
  G 
Feeling like it's hopeless
  D Em 
That's when He reminds You
                     C G 
That you're an overcomer
                D Em 
You're an overcomer
                 C G 
You're an overcomer
                D Em 
You're an overcomer


 C G 
 So don't quit, don't g

Same Love Chords – Macklemore V4

 Can Be Played open or on 8th (Original)

Chords: 

 G  (Claw)  [3 2 0 0 3 3]
 Em  (Claw) [0 2 2 0 3 3]
 C  (Claw)  [0 3 2 0 3 3]

Strum Pattern:  G Em ,    C G ,    G Em ,   C ,     G 
               Dn   Up X Dn    Dn   Up X Dn   Dn   Up X Dn   Dn Dn Dn  

X is mutes, and add some fill!

              G Em 
And I can't change
            C G 
Even if I tried
            G Em 
Even if I wanted to

              G Em 
And I can't change
            C G 
Even if I tried
             G Em 
Even if I wanted to

My love
My love
My love
She keeps me warm
She keeps me warm
She keeps me warm
She keeps me warm