Month: August 2013

Tuesdays Gone Chords – Lynyrd Skynyrd V4

 Artist: Lynyrd Skynyrd 
Song: Tuesday's gone
Tabbed by: DJ
2nd July 2013

Tuning: Standard

 A     =  x02220     Dsus2  =  xx0230
 E     =  022100     D4     =  xx0233
 F#m  =   244222     D5     =  xx0235
 D    =   xx0232     G      =  320033

*************************************************************************

     A E F#m D A E Dsus2 
||: /  /  /  / | /  /  /  / | /  /  /  / | /_/_/ /_/_/ /_/_/ /_/_/ :||(Twice)


 A E F#m D 
   Train roll on,       on down the line,
            A E Dsus2 
Won't you...  please take my problems... a - way---------------------?
                                            | /_/_/ /_/_/ /_/_/ /_/_/ |

 A E F#m D 
   Now, I feel the wind blow...   outside my door,
             A E Dsus2 D D4 D5 
Means I'm...   I'm leaving my woman... at home--------------! Lord, and...
                                          | /_/_/ /_/_/ /_/_/  /_/_/ |


 A G D A E 
 ...Tuesday's gone with the wind,    oh, my baby's gone...
             Dsus2 D D4 D5 A E 
...with the wind--------------  a -   gain-------!
           | /_/_/ /_/_/ /_/_/ /_/_/ | /  /  /  / |

  F#m D A E Dsus2 
| /  /  /  / | /  /  /  / | /_/_/ /_/_/ /_/_/ /_/_/ |


 A E F#m D 
    And I don't know,      oh----, where I'm going,
 A E Dsus2 
    I just want to be left a - lone--------------------,
                              | /_/_/ /_/_/ /_/_/ /_/_/ |

 A E F#m D 
   Well, when this train ends,      I'll---- try a - gain,
               A E Dsus2 D D4 D5 
Lord, but I...   I'm leaving my woman... at home--------------! Lord, and...
                                          | /_/_/ /_/_/ /_/_/  /_/_/ |

 A G D A G D 
 ...Tuesday's gone with the wind,      Tuesday's gone with the wind,
 A G D A E 
 ...Tuesday's gone with the wind,        my baby's gone...
             Dsus2 D D4 D5 A E F#m D 
...with the wind-------------- train roll on,     Tuesday's gone!
           | /_/_/ /_/_/ /_/_/  /_/_/   | /  /  /  /__/   | /  /  /  / |

   A E F#m G 
| /  /  /  / | /_/_/ /_/_/ /_/_/ /_/_/ |

   A E F#m D A E F#m G 
| /  /  /  / | /  /  /  / | /  /  /  / | /_/_/ /_/_/ /_/_/ /_/_/ |


(Mellotron break)
   A G D A G D 
| /  /  /  / | /  /  /  / | /  /  /  / | /  /  /  / |

   A G D A E Dsus2 
| /  /  /  / | /  /  /  / | /  /  /  / | /_/_/ /_/_/ /_/_/ /_/_/ |


(Guitar break)
   A E F#m D A E Dsus2 
| /  /  /  / | /  /  /  / | /  /  /  / | /_/_/ /_/_/ /_/_/ /_/_/ |


 A E 

Sandinista Chords – Low

 This is based on the live version, not the album version

Verse
 Dm Bb A Bb 
Where would you go if the gun fell in your hand?
 Dm Bb A Bb 
Hold to the kids or to sympathetic friends?


Chorus

 Dm Bb 
Oh Sandinista  (2X)
 Dm Bb A 
Oh Sandinista Take My Side

 Dm Bb A Bb 
Deep through the clouds here them march in up slowly
 Dm Bb A Bb 
Fresh with the blood of your fathers so holy

CHORUS

 Dm Bb 
Oh Sandinista  (2X)
 Dm Bb A Bb A 
Oh Sandinista Take My Side          Take My   Side

Just Make It Stop Chords – Low

 Song: Just Make it Stop
Artist: Low
Album; The Invisible Way

Tabbed by: Revlin       7-29-13


A very simple song but beautiful, none-the-less. Here you guys go, enjoy!



Chords used:

      A# D# G# Gm 
e|---6---|---6---|---4---|---3---|
B|---6---|---8---|---4---|---3---|
G|---7---|---8---|---5---|---3---|
D|---8---|---8---|---6---|---5---|
A|---8---|---6---|---6---|---5---|
E|---6---|-------|---4---|---3---|



Intro:  A# D# G# Gm   x2


                         A# 
If I could just make it stop....

                        D# 
I could tell the whole world...

                   G# 
To get out of the way...

                         Gm 
If I could just make it stop...


                         A# 
If I could just make it stop....

                        D# 
I could tell the whole world...

                   G# 
To get out of the way...

                         Gm 
If I could just make it stop...



                           A# 
You see, I'm close to the edge...

                      D#  
I'm at the end of my rope...

                         G# 
The rope is starting to fray...

                       Gm 
I'm trying to keep my hold....



(I assume you've caught onto the patter by now, it continues for the rest of the song.)



You say I'm something I'm not...

But I'm not what I seem...

Get my back off the wall...

If I could just make it stop....


If I could just make it stop...

I could tell the whole world...

To get out of the way...

If I could just make it stop...


If I could just make it stop...

I could tell the whole world...

To get out of the way...

If I could just make it stop...


Now I'm looking up...

From a ten foot hole...

Seeing nothing but blue sky....

Shining on my soul...


As I untie the chord...

And untwist the knot....

We could get where we're going...

If I could just make it stop...


If I could just make it stop...

I could tell the whole world...

To get out of the way...

If I could just make it stop...


If I could just make it stop...

From breaking my heart...

Get out of the way...

If I could just make it stop...

If I could just make it stop...




As usual, if you have comments or corrections you can leave them here, or e-mail 
me at SoftAsylum@gmail.com

Cherry Lips Chords – Loon Lake

 Title - Cherry Lips
Artist - Loon Lake

Bar chords played in official song 

Intro
 D Bm Em Em D D Bm Em 
Shaky feet but solid ground 
 Em D 
Everyone's on valium and no one's around 
 D Bm Em 
She can't seem to find a friend in the whole of this town
 Em D 
Maybe your not looking or your only looking down 


Chorus
          G 
But it's almost night time 
                                       D 
and you know that's the right time to dance 
          G 
Put your cherry on your lips and shake your sexy hips 
               D 
Tonight's the chance
        Bm Em 
ooh to dance, yeah to dance 

[Same chords for the rest of the song]

He won't even notice that you just put two pills down 
Except for when you cuddle him or the way you jump around 
He calls you by your last name but he thinks that it's your first 
Everyone's in love with him but your just feeling worse 

But it's almost night time 
and you know that's the right time to dance ooh 
Put your cherry on your lips and shake your sexy hips 
Tonight's the chance 
ooh to dance, yeah to dance 

Solo
   +   1  +  2  +  3  +  4   +   1  +  2  +  3  +  4 
|--------------------------|-------------------------|
|--------------------------|-------------------------|
|--------------------------|-------------------------|
|--------------------------|-------------------------|
|------5--5--4--4----------|---------0h2--5h7-----=--|
|--5-7-------------7-7--5--|---0h2----------------=--|

   +   1  +  2  +  3  +  4   +   1  +  2  +   3  +  4 
|--------------------------|-------------------------|
|--------------------------|-------------------------|
|--------------------------|-------------------------|
|------------------4-------|-----4-------------------|
|--------7-5---7-5---7-5---|-------7-5---------5-----|
|-------------------------7|------------7-5-7--------|


But it's almost night time 
and you know that's the right time to dance ooh 
Put your cherry on your lips and shake your sexy hips 
Tonight's the chance 
ooh to dance, yeah to dance 


[No chords for the last chorus)
But it's almost night time 
and you know that's the right time to dance ooh 
Put your cherry on your lips and shake your sexy hips 
Tonight's the chance 
ooh to dance, yeah to dance 

More Of You Chords – Liveloud

 More of you

Intro:
 A E F#m E G D A 
You Oh Lord I adore You I rejoice in Your glory
   G D A 
Oohohoh, Holy are You Lord
 A 
Rescued from the darkness Told me I’m forgiven
     G D A 
Oohohoh I’m caught by Your embrace


Ref:
        E F#m 
The wonders of Your love has made me see
     Bm 
That You are all I need
            D E  ---             D - E 
Now my life is complete


Chorus:
 B 
Jesus You’re the one for me
 F# 
You came and loved me endlessly
  G#m F# E 
And all I’ll ever want is more of You
 B 
Your love has overtaken me
 F# 
You changed me and You set me free
 G#m F# E     ---    D 
And all I’ll ever need is more of You


(Repeat Intro)


 A 
Made me Yours forever with You I am stronger
     G D A 
Oohohoh I stand on higher ground

(Repeat Chorus)


Instrumental Chords:
  A  -  E  -  F#m  -  E  -  G  -----  D  -------


Bridge:
 A 
Jesus You’re the one for me
 E 
You came and loved me endlessly
  F#m E D 
And all I’ll ever want is more of You
 A 
Your love has overtaken me
 E 
You changed me and You set me free
 F#m E D 
And all I’ll ever need is more of You


(Chorus 2x)

Your Side Of The Bed Chords – Little Big Town

 Your Side of the Bed
Little Big Town

Capo 5th

Intro
 C Am C Am 


Verse
         F C 
On your side of the bed, there's a picture of our wedding day
    F C 
A clock that don't work and the bible that your daddy gave
             Dm Dm7 
It's on the window side, where the moon creeps in at night


Verse
 F C 
Staring at the ceiling, lying here all alone
          F C 
I said a prayer for you then I said one of my own
               Dm F     
But you don't reach for me, when you lie down quietly


Chorus
         C Am 
Tell me how, how'd you get so far away?
             C Am 
All we have left are the memories of the love we made
                            F  
Are you sleeping with your own regret?
                     C Am  
On your side of the bed


Verse
          F C 
On your side of the bed there's a burned down candle flame
     F C 
A letter I started but I didn't know what to say
               Dm F  
No I couldn't write it down, so I try to say it now


Chorus
         C Am 
Tell me how, how'd you get so far away?
             C Am 
All we have left are the memories of the love we made
                            F  
Are you sleeping with your own regret?
         F  
On your side of the bed


Bridge
                                Dm 
Aren't you even gonna make a sound?
                   F  
Your side of the bed
                                           Dm 
Turn the other way when I turn the lights down
                  F  
Your side of the bed
         Dm F  
Are you lonely like I'm lonely?


Chorus 
 C Am 
How, how'd you get so far away?
             C Am 
All we have left are the memories of the love we made
                            F  
Are you sleeping with your own regret?


Chorus 
         C Am 
Tell me how, how'd you get so far away?
              C Am 
All we have left are the memories of the love we made
                            F  
Are you sleeping with your own regret?


Outro
                     C Am 
On your side of the bed
                     C Am 
On your side of the bed
               F C            
Are you still awake, on your side of the bed.

Magic Chords – Lisa Germano

 This song appears on the soundtrack to the film "Big Top".


Intro:  C  x4


Verse:
 C Am  
Breath to the earth

 G F 
Having no worth

 C Am 
Knife to your gut

 G F 
Feeling the cut

 C Am 
That was the past

 G F  
Those times won't last

 C Am  
Hand to my cape

 C G 
Make your escape



Chorus:
          C      
There is magic here

 Am 
Please be near

 F G  
Witness the sight

        C  
Take a seat my dear

 Am 
Have no fear

 F G  
You will take flight



Verse:
 C Am 
Close to the end

 G F 
Seeking a friend

 C Am 
Lost to the dark

 G F 
Gone is the spark

 C Am 
Stake a new claim

 G F 
Bask in our flame

 C Am 
Under this stone

 C G  
We'll find a home



Chorus:
          C      
There is magic here

 Am 
Please be near

 F G  
Witness the sight

        C  
Take a seat my dear

 Am 
Have no fear

 F G  
You will take flight



Bridge:

 Am F C G  x2
Mmmmmmmm



Chorus:
          C      
There is magic here

 Am 
Please be near

 F G  
Witness the sight

        C  
Take a seat my dear

 Am 
Have no fear

 F G  
You will take flight

 F G  
You will take flight

 F G 
You will take flight



Outro:

 C  x4

Whatll I Do Chords – Linda Ronstadt

 What’ll I Do?


 Fm9  . . . . . . 

 Dbm9 . . . . . . . . ..     Eb7 Abadd9 Eb7+5 
Gone is the romance that was so divine

       
      Abadd9 Eb7 Abadd9 Eb7+5 
'Tis broken and cannot be men     ded 


 Abadd9 Abmaj7 Cadd9 Fmaj9 
You must go your way     and I must go mine


     C/G G7 C Bbm7/Eb Eb9 
But now that our love dreams have en  ded 


           Ab 
What'll I do 


      Dbm6 Ab/C Bbm7 -5/ E 
When you are far  away
 

     Ab/Eb F7+5 Bb7 
And I      am   blue


 Eb7 Ab B7 Bb7 Bbm7/Eb 
What'll I do


           Abadd9 
What'll I do


      Dbm6 Ab/C Bbm7 -5/ Eb 
When I am  wondering who


     Ab/Eb F7+5 Bb7 
 Is kis    sing   you


 Eb7 Ab Db   Ddim7   Ab7    
What'll I do 


           Db Bbm7 Db/Ab Gb9 
What'll I do with just a photo   graph 



    Fm9 F9 Bb7 Bbm7/Eb 
To tell my troubles to 


           Abmaj7 Dbm6 Ab/C Bbm7 -5/ E 
When I'm alone with only   dreams of you


      Ab/Eb F7+5 Bb7 
That won't  come true


 Bbm7/Eb Ab Db Abmaj7 E7 
What'll I do 

 ^     ^     ^     ^     ^     ^     ^     ^     ^     ^     ^     ^
| Aadd9             | Dm6               | Bm7/E             | Bm7 -5/ F         |


 
 ^     ^     ^     ^     ^     ^     ^     ^     ^     ^     ^     ^
| Aadd9 F#7+5  | Bm7/E E7-9  | Am7 Fadd9  | E7              |


Sax..
 ^     ^     ^     ^     ^     ^     ^     ^     ^     ^     ^     ^
| Aadd9             | Dm6               |Add9/ C#           | Bm7 -5/ F         |



 ^     ^     ^     ^     ^     ^     ^     ^     ^     ^     ^     ^
| A6/9              | E7+9 E6/9         | A                 | Em7/A           |



           Dmaj9 Bm7 D/A G9 
What'll I do with just a photo  graph



    F#m9 F#9 B7 Bm7/E 
To tell my troubles to 


            A Dm6 A/C# Bm7 -5/ F 
When I'm alone with only dreams of you


     A G7-5 F#7 F13 -5    E7 
That won't      come   true

 
What'll I 



 ^     ^     ^     ^     ^     ^     ^     ^     ^     ^      ^      ^
| A                 | A/G               | Dmaj7/F#          | F6               |
do 

 ^      ^     ^     ^     ^     ^      ^     ^     ^     ^     ^     ^
| A/E                | Dm9 Dm9 +5   Bb/D  |  Fmaj9 Dbmaj9 |              |


Transcription and chart
Peter Kruger
casparus60@yahoo.com

This Love Tabs by Lincoln Brewster V2

 This Love – Lincoln Brewster (tabs)

Hi, 1st of all, I want to thank God for giving me the patience to make this tab. It’s
literally a pain in the neck if you get irritated quickly. Anyway, I tabbed this because I
needed to play this at church. I play it by ear so it may not completely be how Mr. 
Brewster plays it but I’ve put on a lot of effort with my ears to somehow perfect it, so
enjoy and God be with you always! 

(The tuning is standard, so don'tcha worry)

Intro: repeat 2x
e|-------------------------------------------------------|
B|----14—(5x)--14h15p14-\-12--12-(5x)---12h14p12-\-10----|
G|----14-----14---------\-13--13-----13----------\-11----|
D|-------------------------------------------------------|
A|-------------------------------------------------------|
E|-------------------------------------------------------|

e|---------------------------------------------------------|
B|--10-(5x)----10h12p10-\-7--7-(3x)--9-9-10g-10------------|
G|--11------11----------\-7--7-------7-7-7g--7-------------|
D|---------------------------------------------------------|
A|---------------------------------------------------------|
E|---------------------------------------------------------|

Verse 1:
e|---------------------------------------------------------|
B|---14----12----10----7-----------------------------------|
G|---14----13----11----7----6h7p6h7p6\---------------------|
D|--------------------------7------------------------------|
A|---------------------------------------------------------|
E|---------------------------------------------------------|

e|-------------------------------------------------------|
B|---14----12----/14--10---------7-----------------------|
G|---14----13---------11----/11--7-----6h7p6h7p6\--------|
D|-------------------------------------7-----------------|
A|-------------------------------------------------------|
E|-------------------------------------------------------|

Pre-chorus: repeat 2x
e|---------------------------------------------------------|
B|-----------14----------14--------------------------------|
G|-----14-16----14----14---------14-13-14-16-14-13-14-16---|
D|-14--------------14---------14---------------------------|
A|---------------------------------------------------------|
E|---------------------------------------------------------|

I strum when it comes to the chorus. There is a lead guitar picking in it but it’s way
too complicated. Mr. Brewster does know how to copyright his songs, if you know what I
mean. 

Repeat intro then proceed to
Verse 2:
e|-------------------------------------------------------|
B|--14--12--10---/12-14--7-------------------------------|
G|--14--13--11-----------7---7---------------------------|
D|---------------------------6h7p6h7p6-------------------|
A|-------------------------------------------------------|
E|-------------------------------------------------------|

e|------------------------------------------------------------|
B|--14--12-/14-10---/12-14------17~--14-----------------------|
G|--14--13-----11-----------------------16-14-----------------|
D|--------------------------------------------16-14-----------|
A|--------------------------------------------------16-14~\---|
E|------------------------------------------------------------|


The Pre-chorus and Chorus are pretty much untouched, so that makes you advance to the
solo at 1:58!  (Never mind the smiley, I’m just a happy panda.)


1:58 Solo!
e|----------------------------------------------------------------|
B|--17~\---------------14h15p14-----------------------------------|
G|-------16~p14h16/18--14-----------------------------------16\---|
D|--------------------------------14------------------------14\---|
A|-----------------------------------12h14h16p14—12h14-14---------|
E|----------------------------------------------------------------|

e|---------------------------------------------

In The Middle Chords – Lily And Madeleine V2

 In the Middle
by Lily and Madeleine
from The Weight of the Globe

I watched the video and played this through and through
It's 100% correct

Standard Tuning
Capo 2nd Fret


 C/G  -  Em  -  C/G  -  Em  -  F  -  Em  -  C/G C/G Em 
The river is white, It's tangled and dry
     C/G Em 
But I still remember you here
 F Em C/G 
Swimming in the middle

   C/G Em 
A red bird sings from the sycamore tree
 C/G Em 
Some kind of eloquent echo
 F Em C/G 
I live in the middle


 Am C/G G 
     The shadows and leaves unlock my heart
             F C/G 
Just like a key, like a key
     G F C/G 
And bring you right back home to me


 C/G Em 
All of the years I have spent here
 C/G Em 
I have never wandered
 F Em C/G 
I live in the middle


 C/G  -  Em  -  C/G  -  Em  -  F  -  Em  -  C/G Am C/G G 
     The way you sing unlocks my heart
             F C/G 
Just like a key, like a key
     G F C/G 
And brings you right back home to me


 Am C/G G 
     The way you sing unlocks my heart
             F C/G 
Just like a key, like a key
     G F C/G 
And brings you right back home to me

     G F C/G 
And brings you right back home to me


I watched the video and played this through and through
It's 100% correct

Synchronize Chords – Lily

 Intro:
 Em Em C C Em Em C C Em Em D D C 

Verse 1:
               Em Em C C 
beneath a smoldering sky criss crossed with veins
   Em Em C C 
i rise from our ashes and take the reins
    Em Em D D 
i won't allow this blood to stain
          C 
i will rise
    Em Em C C 
i will not let us fall apart
       Em Em C C 
for what's a prince without his heart
        Em Em D D 
i'll play it fast i'll play it smart
     C 
synchronize

Chorus:
       G C 
and i'll escape the miles
       G C 
and i'll make roxy smile
            G C 
and i'll save the day in style
     Em D C 
and we'll survive

Verse 2:
              Em Em C C 
you know if you guys die well that deprives
            Em Em C C 
me of my heart and my spirit and my strider stride
        Em Em D D 
and i ain't quite willing to lose all that to night 
          C 
so lets fly

          Em Em C C 
ship my head over to jake for our very first kiss
        Em Em C C 
and i hadn't really planned for it to go like this
         Em Em D D 
but the volcano erupts he hears violins
             C 
lips meet mine

Chorus:
       G C 
and i'll escape the miles
       G C 
and i'll make roxy smile
            G C 
and i'll save the day in style
      Em D C 
and we'll survive

Outro:
             G Em 
because a prince wakes up
           G D 
when you tear him apart
            G C 
hurt my friends and break my heart

Calling Chords – Lewis Watson V2

 Calling - Lewis Watson 
Standard Tuning
Link: http://youtu.be/imZ2YEek9eQ

Chords:
 G#m : XX640X
 A : X(7)760X
 E : X(2)210X
 F#m : X(4)420X
 D5 : X0023X
 Db5 : X0013X

Verse:  G#m - A G#m - A E - F#m E - F#m F#m - E  x2
Pre-Chorus 1:  D5 Db5 - D5 G#m - A G#m - A  x2
Pre-Chorus 2:  D5 Db5 - D5 G#m - A G#m - A D5 Db5 - D5 G#m - A A - G#m 
Chorus:  A A D5 E  x2
Bridge:  D5 D5 F#m E  x4
Turnaround:  F#m E - F#m G#m - A G#m - A E - F#m E - F#m G#m - A A - A  

Song order: 
Verse 
Pre-Chorus 1
Verse
Pre-Chorus 2
Chorus
Verse (play the riff 3 times instead of twice)
Pre-Chorus 2
Chorus
Bridge
Turnaround
Chorus (till end)

Castle On A Cloud Tabs by Les Miserables V2

 One bar=one line of lyrics
This is just my version without the embellishments other versions have, with the 
repetitions tabbed too.


There is a castle...
e-5--7-8-7--5-5-4-5-|-5--7-8-7--5-3-1-0-|---0-1-0--5-7-8-5-|---0-1-0----------|
B-------------------|-------------------|-3----------------|-3--------3-1-0---|
G-------------------|-------------------|------------------|----------------2-|    X2
D-------------------|-------------------|------------------|------------------|
A-------------------|-------------------|-------=----------|------------------|
E-------------------|-------------------|------------------|------------------|

There is a lady...
e-1--0--------0-1-0-|-5--3-1-0--1-3-5-3-|3-6--5-3-1-3-5-1-|-0--1-0--101010--|
B------3-1--3------1|-------------------|----------------1|3----------------|
G-------------------|-------------------|-----------------|-----------------|
D-------------------|-------------------|-----------------|-----------------|
A-------------------|-------------------|-----------------|-----------------|
E-------------------|-------------------|-----------------|-----------------|

I know a place...                         |Slow down gradually, from 120 bpm to 40 bpm 
                                        |                                     
e-5--7-8-7--5-5-4-5-|-5--7-8-7--5-3-1-0-|---0-1-0--5-7-8-5-|---0-1-0----------|
B-------------------|-------------------|-3----------------|-3--------3-1-0---|
G-------------------|-------------------|------------------|----------------2-|   
D-------------------|-------------------|------------------|------------------|
A-------------------|-------------------|------------------|------------------|
E-------------------|-------------------|------------------|------------------|



There is a castle on a cloud,
I like to go there in my sleep,
Aren't any floors for me to sweep,
Not in my castle on a cloud.

There is a room that's full of toys,
There are a hundred boys and girls,
Nobody shouts or talks too loud,
Not in my castle on a cloud.

There is a lady all in white,
Holds me and sings a lullaby,
She's nice to see and she's soft to touch,
She says "Cosette, I love you very much."

I know a place where no one's lost,
I know a place where no one cries,
Crying at all is not allowed,
Not in my castle on a cloud.

Sorma Chords – Leman Sam

 Am Em Bb       
                   Gun agarinca boynum bukulur
                    Am Bb 
                   Dalarim uzaklara gonlum sikilir
                         Dm C Bb 
                        Sorma ne haldeyim, sorma kederdeyim
                               Am Em              
                        Sorma yanginlardayim, zaman zaman 
                         Dm C Bb 
                        Sorma utanirim, sorma soyleyemem
                               Am              
                        Sorma nobetlerdeyim, basim duman 
                     Am Em A 
                   ah bu yangin beni olduruyor yavas yavas
                                    G                        
                   kor kor atesler yaniyor icimde
                    Dm Em 
                   aski beni kul ediyor
                    F Em C Am 
                   Kor kor atesler, yaniyor icimde Askin beni kul ediyor...  
                Baslangic:  C - Am - C - Am 
                Solo: C - B - G - Am - B - C - Dm - Em -
                      C - B - G - Am - Am

Trampled Underfoot Tabs by Led Zeppelin V3

 Trampled under Foot         1975
Led Zeppelin (Jimmy Page)
Album: Physical Graffiti

Standard Tuning

---------------------------------------|e
---3---3-----3----3----3---------------|B
---0---0-----2h3--0----0---------------|G
-----3--------------3------------------|D
---------------------------------------|A
-3-------------------------------------|E

------6---6------8----8-----------------|e
----------------------------------------|B
--5/7---7----7/9----9-------------------|G
----------------------------------------|D
----------------------------------------|A
----------------------------------------|E

-----------------------------------------------|e
-2-3-------------------------------------------|B
-2-3---3-2-------------------------------------|G
-----------5-3-5-------------------------------|D
-----------------------------------------------|A
-----------------------------------------------|E


Long Slide Part
------6---6---------8----8----------11----11---------13----13----------|e
-----------------------------------------------------------------------|B
--5/7---7-------7/9----9-------10/12----12------12/14----14------------|G
-----------------------------------------------------------------------|D
-----------------------------------------------------------------------|A
-----------------------------------------------------------------------|E

Listen to the song for the rythm. It's not that hard if you practice a little bit.

Enjoy :D

Rock Collection Chords – Laurent Voulzy

 [Intro]   Em C Am B7 Em 
On a tous dans 1'coeur une petite fille oubliée
             Am                     
Une jupe plissée queue d'cheval à la sortie du lycée
 Em 
On a tous dans 1'coeur un morceau de fer à user
              Am B7 
Un vieux scooter de rêve pour faire le cirque dans le quartier
              Em 
Et la p'tite fille chantait
              C 
Et la p'tite fille chantait
    Em B7 
Un truc qui m'colle encore au coeur et au corps
 E C#m 
Everybody's doing a brand new dance now
 E C#m 
Come on baby, do the loco-motion
   E C#m 
I know you'll get to like it if you give it a chance now
 Am C B7 Em 
Come on baby, do the loco-motion


 Em 
On a tous dans l'coeur le ticket pour Liverpool
                 Am 
Sortie de scène hélicoptère pour échapper à la foule
    Em 
Excuse-me Sir mais j'entends plus Big Ben qui sonne
          Am B7 
Les scarabées bourdonnent c'est la folie à London
            Em 
Et les Beatles chantaient
            C 
Et les Beatles chantaient
    Em B7 
Un truc qui m'colle'encore au coeur et au corps
             E A E D E 
It's been a hard day's night, and I been working like a dog
                  A E 
It's been a hard day's night, 
 D A B7 
Yeah, yeah, yeah              
 Em7 
Yeeeaaaaah


   Em 
A quoi ça va me servir d'aller m'faire couper les tifs
               Am 
Est-ce que ma vie sera mieux une fois qu'j'aurais mon certif'
    Em                          
Betty a rigolé devant ma boule à zéro
               Am 
Je lui dis si ça te plait pas
              B7 
T'as qu'à te plaindre au dirlo
               Em 
Et je me suis fait virer
              C 
Et les Beach Boys chantaient
    Em B7 
Un truc qui m'colle encore au coeur et au corps
 G 
Round round get around
 E7 
I get around, yeah
 Am F D 
Get around round round I get around
       G D Em 
Get around, get around, get around 


 Em 
On a tous dans 1'coeur des vacances à Saint-Malo
           Am 
Et des parents en maillot qui dansent chez Luis Mariano
     Em                                 
Au "Camping des flots bleus", je me traîne des tonnes de cafards
            Am B7 
Si j'avais bossé un peu je me serais payé une guitare
            Em 
Et Saint-Malo dormait
            C 
Et les radios chantaient
    Em B7 
Un truc qui m'colle encore au coeur et au corps
 E 
Gloria, gloria, gloria, gloria


    Fm 
Au café de ma banlieue t'as vu la bande à Jimmy
              Bbm 
Ça frime pas mal, ça roule autour du baby
    Fm 
Le pauvre Jimmy s'est fait piquer chez le disquaire, c'est dingue
         Bbm C7 
Avec un single des Stones caché sous ses fringues
           Fm 
Et les loulous roulaient
            C# 
Et les cailloux chantaient
    Fm C7 
Un truc qui m'colle encore au coeur et au corps
         F Eb F Eb F      
I can't get no,      I can't ge

Ugly Truth Chords – Lauren Aquilina

 These are the chords Lauren posted :-)

( Eb ,  Ab ,  Cm ,  Ab )
This changes everything
I could tear your world to shreds
It don't mean anything
If I live to regret
Going through the motions 
When there's no emotion left to feel
Left to feel

( Fm ,  Gm ,  Ab ,  Fm ,  Gm ,  Ab )
You don't know

( Eb ,  Ab ,  Cm ,  Ab )
You're so oblivious 
To words I've never said
Isn't it obvious 
That we would always get
To a place
Where we would make mistakes?
All you've seen is beauty, well
This is the ugly, this is the ugly truth

( Eb ,  Ab ,  Cm ,  Ab )
You're gonna feel the sting
From my black and yellow heart
The walls are caving in
They're not strong enough to last
We are void but open
To a life we've broken
Shall we leave?
Shall we leave?

( Fm ,  Gm ,  Ab ,  Fm ,  Gm ,  Ab )
You don't know

( Eb ,  Ab ,  Cm ,  Ab )
You're so oblivious 
To words I've never said
Isn't it obvious 
That we would always get
To a place
Where we would make mistakes?
All you've seen is beauty, well
This is the ugly, this is the ugly truth

This is the ugly
This is the ugly truth

( Eb ,  Ab ,  Cm ,  Ab )
You're so oblivious 
To words I've never said
Isn't it obvious 
That we would always get
To a place
Where we would make mistakes?
All you've seen is beauty, well
This is the ugly, this is the ugly truth
This is the ugly truth
This is the ugly truth

En Tatort Pa En Slatt intro Tabs by Lars Winnerback

 -------------------------------------------------------------------------------
                             En tätort på en slätt (intro) - Lars Winnerbäck
-------------------------------------------------------------------------------

I hope this is close to the original. The picking is some Travis picking variant. Have fun!

Tabbed by: Beachmountain
E-mail: beachmountain@hotmail.com

Tuning: Standard
Tempo = 100

Title: En tätort på en slätt (intro)
Artist: Lars Winnerbäck
Tempo = 100
Steel Guitar


E |-----------------0-----------------------1----------|
B |-----------1-----------1-----------1----------------|
G |--------2-----------2-----------2-----------2-------|
D |--2-----------2-----------0h-3--------3-------------|
A |----------------------------------------------------|
E |----------------------------------------------------|


--0--------------0----------------------------------|
-----------1-----------1-----------1-----------1----|
--------0-----------0-----------0-----------0-------|
--------------2-----------------------0h-2----------|
--3-----------------------3-------------------------|
----------------------------------------------------|


-----------------1--------5--------3-----1----------|
-----------1----------------------------------------|
--------2-----------2-------------------------------|
--0h-3--------3-----------3--------2-----0----------|
----------------------------------------------------|
----------------------------------------------------|


--0--------------0----------------------------------|
-----------1-----------1-----------1-----------1----|
--------0-----------0-----------0-----------0-------|
--------------2-----------------------0h-2----------|
--3-----------------------3-------------------------|
----------------------------------------------------|


-----------------0--------1h-0-----------0----------|
-----------3-----------------------3--------0h-1----|
--------0-----------0-----------0-------------------|
----------------------------------------------------|
----------------------------------------------------|
--3-----------3-----------3-----------3-------------|


-----------------0----------------------------------|
--------0h-1-----------1-----------1-----------1----|
--------------------2-----------2-----------2-------|
--------------------------------------0h-2----------|
--0-----------0-----------0-------------------------|
----------------------------------------------------|


-----------------0--------0h-1h-0--------0----------|
-----------0-----------------------3-----------3----|
--------0-----------0-----------------------0-------|
----------------------------------------------------|
----------------------------------------------------|
--0-----------0-----------0-----------0-------------|


-----------------1-----------------------1----------||
-----------1-----------1-----------1-----------1----||
--------2-----------2-----------2-----------2-------||
--0h-3--------3-----------3-----------3-------------||
----------------------------------------------------||
----------------------------------------------------||


************************************

| /   slide up
| \   slide down
| h   hammer-on
| p   pull-off
| ~   vibrato
| +   harmonic
| x   Mute note
| b   Bend
| pb  Pre-bend
| br  Bend release
| pbr Pre-bend release
| brb Bend release bend

************************************

Once In A Lifetime intro Tabs by Landon Austin

 I could only find one video that was helpful to me for this song so i decided to 
make this my first tablature.

Hope you enjoy.

capo: 5th fret
standard tuning 

E------------------------------------------------------------------------------|
B----3-------3-------3-------3-------3-------3-------3------------3------------|
G---0-0-----0-0-----0-0-----0-0-----0-0-----0-0-----0-0----------0-0-----------|
D------------------------------------------------------------------------------|
A-----------------3-------3----------------------------------------------------|
E-0-------0-----------------------3-------3-------3-------3--3/2-------2-0-----|

the slide transition is just to make it sound better but it is only an option.

continued:

E----------------------------------------| You repeat the same pattern from   
B---3-----3-------3--------3-------------| from 3rd fret A string in the first  
G--0-0---0-0-----0-0------0-0------------| part of the song and can keep going
D----------------------------------------| however long you like
A--------------3--------3----------------|
E------0---------------------------------|

Its Okay Tabs by Land Of Talk

 The other tab for this song was kind of off, I think the author just put some 
fingerings in the wrong areas so here is the correct tab. This song is also in a 
tuning resembling open B. 

Tuning from low E to high E: 

E B D# F# B D#

To do that, tune your low E down half a step, leave the B, tune your G down half a 
step, Tune your D up half a step, Tune your A up a whole step, and leave the E. 

Verse:
I'm only posting the chords, not the rhythm, I'm sure you can figure it out.

D#|--------------------------|
B |--------------------------|
F#|0---0--0----0--0----------|
D#|0---0--1/0--0--0----------|
B |0---2--2-2--0--4----------| 
E |0---2--2-2--0--4----------|

Chorus:

The little lead part in here is optional

D#|---------------------------|
B |---------------------------|
F#|-----------4---------------|
D#|-8-7-------0--7--0---------|
B |-----9-7---0--7--0---------| 
E |-----------4--7--0---------|   X4

Lyrical Interlude:


D#|---------------------------|
B |---------------------------|
F#|-0-0-0-0-------------------|
D#|-0-0-0-0-------------------|
B |-0-2-0-4-------------------| x4
E |-0-2-0-4-------------------|

Those are all the chords in this song. After two years I thought I should tab it 
out for someone to enjoy :)

Adam