Month: August 2013

People Like Us Chords – Kelly Clarkson V2

 People Like Us - Kelly Clarkson

Capo on 1st fret

 Dm F 
 We come into this world unknown
                                 Am 
 But know that we are not alone
                             G 
 They try and knock us down

 A change is coming it's our turn now

Verse 1:
  Dm F 
 Hey everybody loses it
             Am G 
 Everybody wants to throw it all away some-times
       Dm F 
 And hey yeah I know what you're going through
                        Am 
 Don't let it get the best of you
                       G 
 You'll make it out alive

       Bb F 
 Oh people like us we've gotta stick together
   C Dm               
 Keep your head up nothing lasts forever
    Bb F 
 Here's to the damned to the lost and forgotten
        C 
 It's hard to get high when you're living on the bottom


   Bb F C Dm 
 Oh-oh oh-oh we are all misfits living in a world on fire
   Bb F C Dm 
 Oh-oh oh-oh sing it for the people like us the people like us


   Dm F 
 Hey this is not a funeral 
             Am G 
 It's a revolution after all your tears have turned to rage
        Dm F 
 Just wait everything will be okay
                    Am G 
 Even when you're feeling like it's going down in flames

       Bb F 
 Oh people like us we've gotta stick together
   C Dm               
 Keep your head up nothing lasts forever
    Bb F 
 Here's to the damned to the lost and forgotten
        C 
 It's hard to get high when you're living on the bottom


   Bb F C Dm 
 Oh-oh oh-oh we are all misfits living in a world on fire
   Bb F C Dm 
 Oh-oh oh-oh sing it for the people like us the people like us
   Bb F C Dm   
 Oh-oh oh-oh you just gotta turn it up loud when the flames get higher
   Bb F C Dm 
 Oh-oh oh-oh sing it for the people like us the people like us


 Bb 
 They can't do nothing to you
 F 
 They can't do nothing to me
 C 
 This is the life that we choose
 Dm 
 This is the life that we bleed 
 Bb 
 So throw your fists in the air
 F 
 Come out come out if you dare
 C Dm 
 Tonight we're gonna change forever

             F 
 Everybody loses it 
             Am G 
 Everybody wants to throw it all away some-times

       Bb F 
 Oh people like us we've gotta stick together
   C Dm               
 Keep your head up nothing lasts forever
    Bb F 
 Here's to the damned to the lost and forgotten
        C 
 It's hard to get high when you're living on the bottom


   Bb F C Dm 
 Oh-oh oh-oh we are all misfits living in a world on fire
   Bb F C Dm 
 Oh-oh oh-oh sing it for the people like us the people like us
   Bb F C Dm   
 Oh-oh oh-oh you just gotta turn it up loud when the flames get higher
   Bb F C Dm 
 Oh-oh oh-oh sing it for the people like us the people like us

Little Bit Of Everything Chords – Keith Urban V2

 (verse)
        G C 
I wish I could take a cab down to the creek
            D 
And hang a disco ball from an old oak tree
 G C 
Smoke and drink once in a while
                 D 
Somehow it'd be good for me
   G C 
I want a cool chick that'll cook for me
        D 
But'll dance on the bar in her tan bare feet
     G C D 
And do what I want when I want and she'll do it with me


(chorus)
 G C Am 
I don't need too much of nothing
 D G  
I just wanna sing a little chill song
        C Am 
Get my groove on, pour something strong
      D G 
Down in my drink, oh, I know
        C Am 
That I don't need a whole lot of anything
 D G 
I just want a little bit of everything
          C D 
Na na na na, na na na na
                             G 
I just want a little bit of everything
          C D    
Na na na na, na na na na


(verse)
 G C  
Now I don't need a garage full of cars
          D 
But I'll take a whole box of Cuban cigars
          G C 
And I'll smoke 'em nice and slow
                D 
Like they were good for me
 G C 
Don't need a ranch or a big piece of land
       D  
But I like to get a little bit of dirt on my hands
 G C 
A big ole couch in a big ole room
 Bbm 
Still feels lonely when it's just you, yes it does


(chorus)
 G C Am 
I don't need too much of nothing
 D G  
I just wanna sing a little chill song
        C Am 
Get my groove on, pour something strong
      D G  
Down in my drink, oh, I know
        C Am 
That I don't need a whole lot of anything
 D G 
I just want a little bit of everything
          C D  
Na na na na, na na na na


(bridge)
                 F 
A little bit of everything
           G C 
Under the sun, so, when I kick back basking in it
         D  
I'll be OK with what I've done, still having fun

(instrumental)
2x
 G C D  
yeah,   at's right,  haha, mmm


(chorus-out)
(no chord)
Cause I don't need too much of nothing

I just wanna sing a little chill song

Get my groove on, pour something strong
                  G  
Down in my drink,  oh, I know
        C Am 
That I don't need a whole lot of anything
 D G 
I just want a little bit of everything
          C D 
Na na na na, na na na na
                             G 
I just want a little bit of everything
          C D     
Na na na na, na na na na
                             G          
I just want a little bit of everything
 C D G C  
Yeah yea yea, whoa, whoa, oh yeah

Even Stars Fall For You intro Tabs by Keith Urban

 e|-------------------------------------------------|
B|-------------------------------------------------|
G|-------------------------------------------------|
D|-------------------------------------------------|
A|-5-5-5-5-5-5-5-5-5-5h7-7p0-----------------------|
E|----------------------------5-5-5-5-5-5-5-5-5----|


e|-------------------------------------------------|
B|-------------------------------------------------|
G|-------------------------------------------------|
D|-------------------------------------------------|
A|-7-7-7-7-7-7-7-7-7-7h9-9p7-----------------------|
E|----------------------------3-3-3-3-3-3-3-3-3----|

and then repeat the whole thing ones

City Boy Chords – Keb Mo

 G Bm C C 
       I hear a voice               and I hear a sound.
            The sound of my     shoes        oh, shuffling outta town.
       Too many people                  too many cars.
     Take me to Memphis,        Mercury or       Mars.


                 G F# Em G/D 
  Cause I wanna go                     where the buffalo        roam.
                 C C G G 
     I'm just a city boy           lookin' for a home.


                 G Bm C C 
        I can't breathe.                 I can't see.
            The city's              no place for me.
            And I can't          seem to find my way.
       I'm just existing             from day to day.


                 G F# Em G/D 
Cause I want to be                     where my soul   can run free.
                 C C G G 
Well, I'm just a city boy         lookin' for a home.


                 D D/E D/F# G G 
          Now I don't   want to be           no prisoner.
                 C C G G 
          And I sure don't wanna be          no slave. 
                 F# G Am Em G/D 
      I want to look out at the night   and see stars    in the sky...
                 Am Am D D 
     The Little Dipper            and the Milky Way.


                 G Bm C C 
        I can't sleep.                 It's too loud.
            And everywhere    I go        there seems to be a crowd.
        And I'm tired of all     these concrete streets.
      I want to feel the dirt       up under my feet.


                 G F# Em G/D 
  Cause I wanna go          somewhere where the buffalo        roam.
                 C C G G 
     I'm just a city boy          lookin' for a home.


(Harmonica Solo for verse)

                 G F# Em G/D 
        I wanna go           somewhere where the buffalo        roam.
                 C C G G 
 Oh, I'm just a city boy           lookin' for a home.
Well now, justa city boy     & I'm lookin' for a home.
   Whoa, just a city boy           lookin' for...

Acapella intro Tabs by Karmin

 Here's the intro for the song Acapella by Karmin. Tabbed by ear, so it might be off, but 
this is how I like to play it. Its a fun, easy riff to learn and a good song.

Intro

e|----------------------------------|
b|----------------------------------|
G|----------------------------------|
E|---7-7-5--------------------------|
A|---------7-7-3-5-5-3-0-0----------|
E|----------------------------------|

Somos La Luz Chords – Kari Jobe

 Acordes:  G (320033),  D (xx0232),  D/F# (2x0232),  Asus4 (x02230),  Bm (x2023x)

Capo 3

INTRO   G D Asus4   (2x)

VERSO 1
 G D Asus4 
 Hay secretos   que guardar
 G D Asus4 
 Y temores   que enfrentar
 G D                    
 Nuestra identidad 
 Bm Asus4 
 No es la oscuridad 
 G D Asus4 
 Somos hijos de la luz

PRE-CORO
 Bm 
Vamos ya levantate
 Asus4 
Tu misión suprema es 
 D/F#  
Toda sombra deja atrás 
 G 
Usa bien el tiempo que hay 

CORO
 D 
 Tu y yo somos la luz
 Bm G 
 La luz que al mundo hace brillar
 D             
 Tu y yo somos la luz
     Bm G 
Mas alto, mas alto, mas alto brillaremos (2x)

POS-CORO
 D Bm G                           
    Brillaremos, brillaremos 
 D Bm G 

VERSO 2
 G D/F# Asus4 
 Es el tiempo   de anunciar 
 G D/F# Asus4 
 El evangelio    de la paz
 G D/F# Asus4 
 Que hay vida, libertad   Y amor sin igual
 G D/F# Asus4 
 En el nombre de Jesus 

Repite coro

PUENTE
 G D Asus4 Bm 
Somos la luz, somos la luz, somos la luz, al mundo brillaremos 
 G D Asus4 Bm 
Somos la luz, somos la luz, somos la luz,  Cristo
 G D Asus4 Bm 
Tu eres la luz, tu eres la luz, tu eres la luz, te exaltaremos 
 G D Asus4 
Mas, mas, mas

Repite coro

SALIDA
 D Bm G                           
    Brillaremos, brillaremos 
 D Bm G D/F#                      
    Brillaremos, brillaremos 

Mamas Broken Heart Chords – Kacey Musgraves

 I know Miranda made this famous but I absolutely love Kacey's version. I have 
never done a tab before so go easy on me. This is a very easy song to learn since 
there are only 2 chords! Enjoy!



Standard tuning   Capo 8 (This is how she played it in her concert version
http://www.youtube.com/watch?v=4zWQ6zxsNCw)



Intro:  Am E Am E Am 
I cut my bangs with some rusty kitchen scissors
 E 
 I screamed his name til the neighbors called the cops
 Am 
 I numbed the pain at the expense of my liver
 E Am (1 strum, then mute)
 Dont know what I did next, I just know I couldnt stop

 Am 
 Word got around to the barflies and the baptists
 E 
 My mamas phone started ringin off the hook
 Am 
 I can hear her now sayin she aint gonna have it
       E Am 
 Dont matter how you feel, it only matters how you look

 Am 
 Go and fix your make up, girl, its just a break up
          E 
 Run and hide your crazy and start actin like a lady
           Am 
 Cause I raised you better, gotta keep it together
       E 
 Even when you fall apart
 E Am 
 But this aint my mamas broken heart

 Am 
 Wish I could be just a little less dramatic
         E 
 Like a Kennedy when Camelot went down in flames
 Am 
 Leave it to me to be holdin the matches
           E Am 
 When the fire trucks show up and theres nobody else to blame

 Am 
 Cant get revenge and keep a spotless reputation
 E 
 Sometimes revenge is just a choice you gotta make
 Am 
 My mama came from a softer generation
            E Am 
 Where you get a grip and bite your lip just to save a little face

 Am 
 Go and fix your make up, girl, its just a break up
          E 
 Run and hide your crazy and start actin like a lady
          Am 
 Cause I raised you better, gotta keep it together
       E 
 Even when you fall apart
 E Am 
 But this aint my mamas broken heart

Solo:  Am E Am E 

Am (for the entire bridge)
 Powder your nose, paint your toes

 Line your lips and keep em closed

 Cross your legs, dot your eyes

 And never let em see you cry

 Am 
 Go and fix your make up, girl, its just a break up
          E 
 Run and hide your crazy and start actin like a lady
          Am 
 Cause I raised you better, gotta keep it together
       E  
 Even when you fall apart
 E Am 
 But this aint my mamas broken heart  

What To Do Chords – Juliets Suicide

 Intro:
 Em G A C  (2x)

Verse 1:
 Em G 
I know what you did last night
 A C 
You were hanging out with that other guy
 Em G  
Sorry to burst your bubble but he's trouble, yeah
 A C 
I know, I know
 Em G 
He is my ex boyfriend
 A C 
I thought our relationship would never end
 Em G 
But obviously I was terribly wrong
 A C 
Whoa-oh Whoa-oh

Pre chorus:
     Em G D 
You don't believe me and I know you think I'm wrong
 Em G D C Em G D 
But when he breaks your heart you'll remember this sooooooooooooong

Chorus:
          Em G         
He's a troublemaker and a heartbreaker, 
         D C 
he'll break your heart just like mine too.
     Em G 
He doesn't even care and he doesn't understand 
       D C 
the feelings that we have been put through
          Em G 
He will leave you in an alleyway all alone
 D C 
Won't even call you on the telephone.
 Em G 
You'll be in your room crying "Boo Hoo Hoo"
             D 
And you're too scared because you don't 
(silence)
know what to do.

(single strum)
 Em Em G G 
     Oh oh    Oh, oh
 D                           
You're too scared because you don't 
 C 
know what to do

(single strum)
 Em Em G G 
     Oh oh    Oh, oh
 D                           
You're too scared because you don't 
 C 
know what to do.

Refrain:
 Em G A C  (2x)

Verse 2:
 Em G 
Tell me this, did he try to kiss you
 A C 
or even get into your pants?
 Em G 
Oh, how predictable and despicable!
 A C 
Do you really call that romance?
 Em G 
Listen, Honey, he's a user and abuser
           A C 
and he chooses girls that seem easy.
 Em G 
You deserve a guy that treats you 
 A C 
like you're royalty. 

Pre chorus:
     Em G D 
You don't believe me and I know you think I'm wrong
 Em G D C Em G D 
But when he breaks your heart you'll remember this sooooooooooooong

Chorus:
          Em G         
He's a troublemaker and a heartbreaker, 
         D C 
he'll break your heart just like mine too.
     Em G 
He doesn't even care and he doesn't understand 
       D C 
the feelings that we have been put through
          Em G 
He will leave you in an alleyway all alone
 D C 
Won't even call you on the telephone.
 Em G 
You'll be in your room crying "Boo Hoo Hoo"
             D 
And you're too scared because you don't 
(silence)
know what to do.

(single strum)
 Em Em G G 
     Oh oh    Oh, oh
 D                           
You're too scared because you don't 
 C 
know what to do

(single strum)
 Em Em G</span

Cant Help Lovin Dat Man Of Mine Chords – Julie London

 This is not my own tab. Just thought it should be shared on a larger platform!

Original Link: http://www.e-chords.com/chords/julie-london/cant-help-lovin-dat-man


 D D7 E7 A7M D  
Oh, listen, sister, I love my Mister man; 
          D7M D D7M  
I can't tell yo' why 
 G Gm D   
Dere ain't no reason why I should love dat man 
 A7 A7M A7 D  
It must be sumpin' dat  de angels done plan 
 D D7 E7 A7M D  
De chimhley's smokin', de roof is leakin' in, 
         D7M D7  
But he don't seem to care; 
 G Gm D   
He can be happy with jes' a sip of gin. 
 A7 A7M A7 D  
I even loves him when his kisses got gin. 
Melody: 
 D Bm7 Em7 F#m A7  
Fish got to swim and birds got to fly, 
 D Bm7 G Gm  
I got to love one man till I die, 
 D Bm Bb7 A7 D G7M G6  
Can't help lovin' dat man of  mine. 
 D Bm7 Em7 F#m A7  
Tell me he's lazy, tell me he's slow, 
 D Bm7 G Gm   
Tell me I'm crazy maybe, I know. 
 D Bm Bb7 A7 D G D G D  
Can't help lovin' dat man of  mine. 
Bridge: 
 G6 Fdim D E7  
When he goes away, dat's a rainy day, 
 D Fdim A7 G/B A7 G6 A7  
And when he comes back, dat day is fine, the sun will shine. 
 D Bm Em7 A7  
He can come home as late as can be; 
 D Bm G Gm  
Home without him ain't no home to me 
 D Bm Bb7 A7 D E7 Gdim D  
Can't help lovin' dat man of  mine. 

B Story Chords – Julian Smith V2

 Did this by ear from the music video, not the acoustic video, Listen to the video 
to figure out the strum pattern and exact times for chord changes. You can use 
regular C instead of C/G it still sounds fine but I'm pretty sure he uses C/G 
throughout most of the song

 C/G Em Am F C/G Em Am F 
Show me another picture, I'll try my best to see
 C/G Em Am F C/G Em Am F  
What happened to us baby, I've lost the memory

 C Em Am F  x2

 C/G Em Am F C Em Am F 
I understand you're worried, this doesn't feel the same
 C/G Em Am F C Em Am F 
But I won't give up, I won't give up, I'll try my best to see

 C Em Am F 
I don't want to be sorry, I don't want to give in
 C Em Am F 
I just want to remember what it was like back then
 C Em Am F 
I'm with you on the way out, but on the way in
 C Em Am F 
I just want to remember what it was like back then

 C Em Am F  x4 

 Em *      Am *                   Em *           Am *
I understand you're worried, this doesn't feel the same
 Em *              Dm *                  C/G 
But I won't give up, I'll try my best
    Em Am F C/G 
I won't give up I'll try my best
    Em Am F C/G Em Am F 
I won't give up I'll try my best to see, to see, to see

 C/G Em Am F 
I don't wanna be sorry, I don't wanna give in
 C/G Em Am F 
I just want to remember what it was like back then
 C/G Em Am F 
I'm with you on the way out, but on the way in
 C/G Em Am F 
I just wanna remember what it was like back then

 C Em Am F  x5

 C Em Am 

*strum once

Stay With Me Till Dawn Chords – Judie Tzuke V2

 Artist: Judie Tzuke
Song: Stay with me till dawn
Tabbed by: David John
31th July 2013

Tuning: Standard

 Bb      =  x13331     Gm9    =  353335     F       = xx3211
 C       =  x32010     Am     =  x02210     A7sus4  = x02030
 Bb/F    =  xx3331     Bb/D   =  xx0331     Dm      = x57765
C9sus4 =  x3333x     C/E    =  xx2010
 C/D     =  xx0010

*************************************************************************

 Bb C 
      Is this a game-----  you're playing?
 Bb C 
      I don't understand what's going on,
         Bb C 
I can't see through your frown, first you're up,     then you're down,
         Bb C 
You're keeping me from someone... I want to know!


       Bb/F                C9sus4           C/D 
But I need you tonight!  (Need you to - night!)
        Bb/F               C9sus4           C/D Gm9 
Yes, I need you tonight! (Need you to - night!) and I'll show you a sunset,
             C Bb Am Bb/D C/E 
If you'll stay... with... me... till dawn--------!  |  /  /  /  /  |

    Bb/D C/E 
|  /  /  /  /  |  /  /  /  /  |


 Bb/D C/E Bb/D C/E 
      It's the same old situ - ation,       every word so finely placed,
 Bb/D C/E 
      Running around my con - centration,
         Bb/D C/E 
Is the feeling that I've just got to break out, and say...


        Bb/F                   C9sus4           C/D 
Oh, I need you tonight----!  (Need you to - night!)
        Bb/F                   C9sus4           C/D 
Yes, I need you tonight---!  (Need you to - night!)
           Gm9 C Bb Am Bb/D C/E 
And I'll show you a sunset, if you'll stay... with... me... till dawn----!


     Bb/D C/E Bb/D C/E 
||:  /  /  /  /  |  /  /  /  /  |  /  /  /  /  |  /  /  /  / :||(Twice)


 Bb/D C/E 
      Is this a game-----  you're playing?
 Bb/F C/E 
      Playing with my heart-----------,
                              (Need you tonight!)

 C/E F Bb/D C/E 
Oo,...stop ....playing with my heart--------,
                                     (Need you tonight!)

           Gm9 C Bb Am Bb/D C/E 
And I'll show you a sunset, if you'll stay... with... me... till dawn----!

   Bb/D C/E Gm9 
|  /  /  /  /  |  /  /  /  /  |    Yes, I'll show you a sunset,

             C Bb A7sus4 Bb/D Dm 
 If you'll stay... with...  me... till dawn--------!

Dont Stop Believing Acoustic Tabs by Journey V5

 -------------------------------------------------------------------------------
                             Don't Stop Believin' - Journey
-------------------------------------------------------------------------------
Tabbed by: ChrisRGuitar
E-mail: chrisrguitar@gmail.com

This is a fingerstyle tab version of Journey's Don't Stop Believin.  If you want to hear 
how the tab sounds you can go to http://youtu.be/bz9gtyJYM2A to see a video performance 
of this version of the song.
I have created nearly 100 other similar fingerstyle arrangements of songs like this, 
that you can email me at the address above to receive them free of charge. :)  Good luck & 
I hope you enjoy!


e|--0-----0-----0-----0-----|-2-----2-----2-----------|
B|-----0-----0-----0--------|-------------------4-----|
G|o----------------------4--|----4-----4-----4-----4--|
D|o-------------------------|-------------------------|
A|-----------------------2--|----------------4--6--4--|
E|--0--------------2--4-----|-------------------------|

e|--------------------0-----|-------------------------|
B|--5-----5-----5--------0--|-2-----2-----2-----2-----|
G|-----4-----4-----4--------|----2-----2-----2-----2--|
D|--------------------------|----------------1--2-----|
A|-----------------6--7--0--|-------------------------|
E|--------------------------|----------------------0--|

e|--0-----0-----0-----0-----|-2-----2-----2-----------|
B|-----0-----0-----0--------|-------------------4-----|
G|-----------------------4--|----4-----4-----4-----4--|
D|--------------------------|-------------------------|
A|-----------------------2--|----------------4--6-----|
E|-----------------2--4-----|----------------------4--|

e|--------------------0-----|-------------------------|
B|--4-----4-----4--------0--|-2-----2-----2-----2-----|
G|-----4-----4-----4--------|----2-----2-----2-----2--|
D|-----------------6--------|----------------1--2-----|
A|-----------------------0--|-------------------------|
E|--------------------4-----|-------------------------|

e|--0-----------------4-----|-2--2-----4--------2-----|
B|-----------0-----------5--|-------------------------|
G|--------1-----------------|-------4--------4-----4--|
D|-----2-----------2--------|-------------------------|
A|--------------------------|-2-----------2-----------|
E|--0-----------0-----------|-------------------------|

e|--------------------------|-7-----7--4--------------|
B|--5-----------5-----5-----|-5--------------7--5-----|
G|--------4--6-----------6--|-6--6-----------------6--|
D|-----6-----------6--------|-------------------------|
A|--4-----------4-----------|-0-----------0-----------|
E|--------------------------|-------------------------|

e|--------------------4-----|-2--2-----4-----2--------|
B|-----------0-----0-----5--|-------4--------------5--|
G|--------1-----------------|-------------------4-----|
D|-----2--------------------|-------------------------|
A|--------------------------|-2-----------2-----------|
E|--0-----------0-----------|-------------------------|

1.|___________________________________________________
e|-----------4--------------|-------------------------|
B|--7-----4-----4--------5--|-------------------------|
G|-----4--------------4-----|----------------2--------|
D|-----------------6--------|----------2-----------2--|
A|--------------------------|----0--------------------|
E|--4-----------------------|-------------------------|

1.|___________________________________________________
e|--0-----------------4-----|-2--2-----4--------2-----|
B|--0--------0-----0-----5--|-4--4-----4--------------|
G|--1-----1-----------------|-4--4--4--4-----4-----4--|
D|-----2--------------------|-------------------------|
A|--------------------------|-2-----------2-----------|
E|--0-----------0-----------|-------------------------|

1.|___________________________________________________
e|--------------------------|-7-

It Is Well Instrumental Tabs by Josh Wilson

 Josh Wilson
It Is Well (Instrumental)

Tuning: DAGDAD

*I LEFT OUT THE PART WHERE JOSH SINGS, but it fits very well*

D|---------0---------------------------0---------------0---------------|
A|-------------------------------------------------------4~~~~~~~~~~~~-|
G|---0-----------------0-2-------0---------0-------0h2-----------------|
D|-----------------0h2-----0h1/4---------------0h2---------------------|
A|-9---7-------5---0---------------7-----------------------------------|
D|-5-----5---5---5-------------------5---5---5-------------------------|

D|-------------0---------------------------------------------------0---|
A|---------0-------------------------------------0-------------0-------|
G|-0h2-------------0--------0----------------4---2---0-------0---------|
D|-----0------------4-2/4-------2---4----5---------0---0-1/4-----4-----|
A|-----------------------------------------5---5-4---2-----------------|
D|-------0---0---0--------0---0---0---0--0---------------0-----0-----0-|


D|------0----------------0-------------------0-------0-------0---------|
A|-----------------------------------------0-------0-------0---4---4---|
G|-2/7-------6---4---4-------2---1------2------------------------------|
D|-----0---0---0---0---0---0---0---0---0-------2/4-------2-------2-----|
A|-------------------0-----------2----0----------------0---------------|
D|---9---------------2-------2-----------------------------------------|

D|-------0----------------0-----------------0--------------------------|
A|---------------------------------------------------------------------|
G|-2/7-------7---6----4-------4---4-----9-------9---7----4/6\4-2-------|
D|---------0---0---0----0---0---0---------9---9---9---9----------4\2~~-|
A|-------------------------------------------------------0-------------|
D|-----0-------------5----------------6--------------------------------|

D|-----------0--------0--------0-----0-------0-----------------0-------|
A|-----------------------------------0---------------------0-----------|
G|-2--/7-7--------7--------7-------6-0-0-----------------0---------0---|
D|---0-----0---0----0---0----0---0---0-----------0---0/2-----2---2---0-|
A|-----------------------------------9---7-----------------------------|
D|-------4-------5--------7----------5-----5---5---5-------------------|

D|-0-------0-------------------0h4h2~~-5h7-7-------5---4---2/4---------|
A|-0---------------------------------------0---------------------0-----|
G|-0-0-------------------0h2h4-------------7---7-----7---7-------------|
D|-0-----------0---0h2h4-------------------0-0---0-------------0---0---|
A|-9---7-----------------------------------0---------------------------|
D|-5-----5---5---5-------------------------0---------------------------|

D|-2---4-5-7-9---7---5---4h7b4b0-0---0-7---12----11---9---9---|
A|---0---0---------------0-------4/5-5-0---0------------------|
G|-------0-----0---------0-------------6---11-11-10---9-------|
D|-------0---------0---0--------------------------------------|
A|-------0----------------------------------------------------|
D|-------5-------7-------0-------------4---9-----9----9---10--|

D|-----------------4----------------4--5--0--2--7//*12--*12---|
A|-------*12---------------0--------0--0--0--0---0----------4-|
G|---*12-----*12-------0-------0----0--0--0--0-------*7-------|
D|-*12-*12-*12--12---0---0---0------4--5--0--2--------*7------|
A|-------------------------------0--0--0--0--0---------*7-----|
D|-----------------2---------------(0)(0)(0)(0)-----0---------|

D|-9\7------------------9-------------9/11\9------------------|
A|-----5-------5/7-*7-------*7---------------12-----------*12-|
G|-------6---6--------9---9------*7-------------11/12\11-9----|
D|-----------------------------9----9-------------------------|
A|------------------------------------0~~~~~~~~~~~~~~~~~~~----|
D|-5-------5--------6-----------------------------------------|

D|-----0-----

When You Look Me In The Eyes Chords – Jonas Brothers V9

 Couldn't find any chords playing on the same key as the studio version. You can 
capo and transpose it though, but i find it troublesome, so here it goes..

Key D

Verse 1:
 G Asus4  
If the heart is always searching
                     Bm 
Can you ever find a home 
                             G 
I've been looking for that someone, 
Ill never make it on my own
 G                       Asues
Dreams can't take the place of loving you, 
               Bm Asus4 G 
There's gotta be a million reasons why it's true. 

CHORUS:
                          D 
When you look me in the eyes,
                       Asus4 
And tell me that you love me
                Bm 
Everything's alright, 
                               G 
When you're right here by my side
                          D 
When you look me in the eyes, 
                        Asus4 
I catch a glimpse of heaven
   Bm Asus4 G 
I find my paradise, 
                          D 
When you look me in the eyes. 

(Repeat verse 1 chords)
Verse 2:                    
How long will I be waiting, 
To become a better man
Gonna tell you that I love you, 
In the best way that I can. 
I can't take a day without you here, 
You're the light that makes my darkness disappear. 

(Repeat Chorus) 

Bridge:
 Bm Asus4 
More and more, I start to realize, 
        Bm         
I can reach my tomorrow, 
        Asus4 
I can hold my head high, 
          G Bm Asus4        
And it's all because you're by my side. 

(Repeat Chorus)

Jurassic Park Theme intro Tabs by John Williams V3

 this is a correction to tabs that are already submited here but are wrong....


e---------------------------0-0--2--3--2--2---0------2---0--5----3--2-2--0-0-|
B-----3----3-2-3----3-2-3-------------------3----2-----3------3--------------|
G--------------------------------------------------2-------------------------|
D-----4-----------------------------0--------------0--------4-4--0-----------|
A---------------------------0-------------0----------0---0--5------------0---|
E----------------------------------------------------------------------------|

e-------------------------------------------------|
B--3-2-3-----3-2-3-----3-2-2-3------3-2----3-2-3--|
G--------2-0-------2-0---------2---------------2--|
D--4-------------------------0-0--0------------0--|
A--------4-0-------4-0----------------0--------0--|
E-------------------------------------------------|

Shadow Days Tabs by John Mayer V3

 I was a little disappointed with the way the other tabs were so I decided to try 
and make an accurate one. Fingers crossed. This is my first tab and 
I just went off of listening to the track so cut me some slack if it's awful. :) 

The chords used are: D, C, G, Em, Bm, A

Intro
(/) Slide Up  (\) Slide Down  (h) Hammer On  (p) Pull Off  (b) Bend (r) Release (v) Vibrato

E|--------------------------------------------|
B|--10--7--10--10b12--8--------------------8--|
G|-----------------------9b10--7-----7--9-----|  
D|--------------------------------------------|        X2 (second time without 
A|--------------------------------------------|        last three notes.)
E|--------------------------------------------|

Verse
D
Did you know that you could be wrong
    C
And swear you're right
G
Some people been known to do it
Em
All their lives

D
But you find yourself alone
          C
Just like you found yourself before
     G
Like I found myself in pieces
Em
On the hotel floor

Pre-chorus
G                   Em  
Hard times, help me see

Chorus
D
I'm a good man with a good heart
G
Had a tough time, got a rough start
Bm                           A  G
But I finally learned to let it go
D
Now I'm right here, and I'm right now
G
And I'm open, knowing somehow
Bm                    A G 
That my shadow days are over
G
My shadow days are over now

Repeat the intro and it should repeat exactly like that for the next verse, chorus 
and the final chorus.

Solo

Electric Solo


E|---------------------------------------------------------12b13--13--13--13--13--13--13--10--10-10|
B|-10~-----7--10--11/14\11----7--10--12/15\12--12/15\12--------------------------------------------|
G|-----7-------------------7--------------------11/14\11-------------------------------------------|
D|-------------------------------------------------------------------------------------------------|
A|-------------------------------------------------------------------------------------------------|
E|-------------------------------------------------------------------------------------------------|

Acoustic Solo


E|--10h12--12--12--10--7--5--3----------------|
B|--10h12--12--12--10--7--5--3----------------|
G|--------------------------------------------|
D|--------------------------------------------|
A|--------------------------------------------|
E|--------------------------------------------|

E|--10h12--12--12--10--7--5--3--7--3--3--3/5\3|
B|--10h12--12--12--10--7--5--3--7--3--3--3/5\3|
G|--------------------------------------------|
D|--------------------------------------------|
A|--------------------------------------------|
E|--------------------------------------------|

*Brief instrumental break (2 measures)*

E|--12--12--12--12--10--10--7--7--5--3/5\-----|
B|--12--12--12--12--10--10--7--7--5--3/5\-----|
G|--------------------------------------------|
D|--------------------------------------------|
A|--------------------------------------------|
E|--------------------------------------------|

Walls And Doors Chords – John Frusciante

 Artist: John Frusciante
Album: PBX Funicular Intaglio Zone
Song: Walls and Doors 

I think it's pretty accurate.
If you have any corrections, please let me know.
Hope you enjoy!
P.S. When you see a chord (let's say C#) and then the same chord in parentheses, 
it means that you keep playing that chord (it last longer than the others) 

Chords you may not know:

      Fsus4 Ddim Gaug 
|--1-----(8)---|------x------|-----------4---|
|--1------11---|------6------|--(8)------5---|
|--3------10---|------7------|---8-------5---|
|--3--or--10---|------6------|---9---or--6---|
|--3------8----|------5------|---10------x---|
|--x------x----|------x------|-----------x---|                   

                               Walls and Doors
----------------------------------------------------------------------------

 F#m D   
Any sigh is a womb
     A E F#m D A E 
Releasing to the room of senses
    Fm Db 
Results of plans are ours
      Ab Eb Fm Db Ab Eb   
Our actions girt in what will be
 Gm Eb 
One time seems a bunch
      Bb Fsus4 F      
But we don't see in front  of 

 Eb Gm F#  ( F# )  C# Ddim 
us

 Bm A      
When you do anything
 E Bm A E G 
  Everything's coming to you
 Bbm Ab        
When you see a changeling
 Eb Bbm Ab Eb 
  He's nothing but his appearances' sum

 Gaug                                   
     He's nothing but his appearances'

 Bbm Ab Eb  ( Eb )  G F#   
sum

 F F# 
Touch knows what's hearing
 F F# 
Sight knows who's speaking
          C# F 
They're walls and doors
                       Bbm 
And naught upholds it all

 Bbm 
Heyy

       Bbm C# F 
What never ends lost it all
     F# C#     ( C# )      F 
It echoes and re-throws
      Bbm C# F 
The bornless win it all
      F# C# F 
They echo tomorrow's sounds
 F7 
   And all is turned around

 Bbm C# F Bbm G# Eb  ( Eb )

       Bbm C# F 
What never ends lost it all
     F# C#     ( C# )      F 
It echoes and re-throws
      Bbm C# F 
The bornless win it all
      F# C# F 
They echo tomorrow's sounds
 F7 
   And all is turned around

 Bbm C# F F# C#  ( C# )  F  x2

 Bbm C# F Bbm

Introsabam Tabs by John Frusciante

 -----------------------------------------------------------------
INTRO/SABAM - John Frusciante
-----------------------------------------------------------------
Tabbed by:Frazer H
Email:frazer.hughes@gmail.com

Tuning:standard

The guitar part on this song kicks in at 0:23seconds for whatever
reason i started tabbing at 0:39 but its more or less repetative
anyway. there are some bars that are overdubbed with another guitar
playing high harmonies, i tabbed those too in some random places,
you can do it anywhere in the song just play whats here up an octave
(or if you have a loop pedal you can have some fun with it).
Like Raitug and the solo on Guitar, this is either in E major or
Bmajor (frusciante seems to avoid playing a A or A# in any clear
way that i can tell).

  [0:39 seconds]
e|------------------------------------------------------------------|
B|------------------------------------------------------------------|
G|----8---6---4-----------------------------------------------------|
D|---/-\-/-\-/-\-/6---------4s/6------------------------------------|
A|--/---4---2---4-------2-4-----------------------------------------|
E|-0----------------------------------------------------------------|

  [0:43 seconds]
e|----------------------------12-----------------------------------------|
B|-----9----------------/12\-/--\-/12\-----------------------------------|
G|----/-\---11---9---8------9----9---------------------------------------|
D|---/---\-/--\-/-\-/----------------------------------------------------|
A|--/-----9----7---9-----------------------------------------------------|
E|-9---------------------------------------------------------------------|

  [0:47 seconds]
e|-------------------------------------------------------------------|
B|-4------------------------------------9----------------------------|
G|--\---6---4---(3)s/6--4---4-/6-------/-\---11(hold)-/13------------|
D|---\-/-\-/-\6/---------\-/----------/---\-/------------------------|
A|----4---2---------------4----------/-----9-------------------------|
E|----------------------------------9--------------------------------|

 [0:52 seconds] ---> Overdub/Harmony Part for  [0:52-----------------| seconds]
e|----------------|---12----9----------------------------------------|
B|----------------|--/--\--/-\---12\-9-------------------------------|
G|---11---9---8---|-9----11---\-/------------------------------------|
D|--/--\-/-\-/-\6-|------------9-------------------------------------|
A|-9----7---6-----|--------------------------------------------------|
E|----------------|--------------------------------------------------|

 [0:55 seconds]  --->  --->  Overdub/Harmony Part for [0:55---------| sec.]
e|----------------------------|-------------------------------------|
B|----------------------------|----16h17--14------------------------|
G|--8h9--6---6---4-----4s/6---|---/------------18-16-----16s/18-----|
D|--/-------/-\-/--4-6--------|--/------------/-\/--16-18-----------|
A|-/-------4---2------------4-|-16-----------16-14------------------|
E|-9--------------------------|-------------------------------------|

The guitar parts on this song just cycle through these kind of
structures, repeat, play around with it, etc.

The Cowboy And The Lady Chords – John Denver

 Capo II


 D G Em F#m Em D D                          
In the airport lounge she sat
     G 
In a fancy feathered hat
    Em G D 
The grandest lady I had ever seen
    D  
Outside the heavy rains
     G                  
Had grounded all the planes
      Em D 
So I asked her if she'd like some company

       D                      
In my rhinestone studded suit
    G            
My cowboy hat and boots
   Em G D 
I must have been a sight for her to see
         D 
But she said, "Pull up a chair"
        G 
As she fumbled with her hair
   Em D 
A more unlikely pair you'll never see

       D 
I was Mogen Davis wine
         G 
She was Chablis '59
     Em G D 
But there we sat, the cowboy and the lady
         D         
She was evenings at the Opera
     G 
And summers in Paris
       Em D 
I was Grand Ole Op'ry, Nashville, Tennessee

     Bm A 
The cowboy and the lady
    G F#m 
As different as could be
        Bm A     
But it seemed so right
      G Em A (pause)
That rainy night in Tennessee

     D     
And somewhere in between
     G 
Her Harvey's Bristol Cream
         Em G D 
And the beer I drank and the easy company
    D 
We somehow came together
       G 
For a night of stormy weather
               Em D 
Now there's a little bit of class in this old cowboy
           G F#m Em D 
There's a little bit of cowboy in the lady

Solo:  D G Em F#m Em D Bm A 
The cowboy and the lady
    G F#m 
As different as could be
        Bm A 
But it seemed so right
      G Em A (pause)
That rainy night in Tennessee

Interlude:  D G Em G D D        
We somehow came together
       G 
For a night of stormy weather
               Em D 
Now there's a little bit of class in this old cowboy
           G F#m (pause)
There's a little bit of cowboy in the lady

Repeat and Fade:  D G Em G D

Rocky Mountain High Chords – John Denver V3

 This is the way I play the song. Denver plays different variations of the
 chords and plays with drop D tuning but this version is for standard tuning
 and uses simple chords.

CAPO II (chords relative to capo)

    D Em C A G F#m G *
e|-2----0----0----0----3----2----3--|
B|-3----0----1----2----0----2----0--|
G|-2----0----0----2----0----2----0--|
D|-0----2----2----2----0----4----0--|
A|-x----2----3----0----2----4----x--|
E|-x----0----x----x----3----2----x--|

        D Em C A 
He was born in the summer of his 27th year 
        D Em G A 
Comin' home to a place he'd never been before 
         D Em C A 
He left yesterday behind him, you might say he was born again 
           D Em G A 
You might say he found a key for every door 

         D Em C A 
When he first came to the mountains his life was far away 
        D Em G A 
On the road and hangin' by a song 
         D Em C A 
But the string's already broken and he doesn't really care 
          D Em G A 
It keeps changin' fast and it don't last for long 

         G A D 
But the Colorado rocky mountain high
      G A D    
I've seen it rainin' fire in the sky
       G A D Em F#m G *
The shadow from the starlight is softer than a lul...la...by 
                D Em G A 
Rocky mountain high (Colorado) 
                D Em G A 
Rocky mountain high (Colorado) 


He climbed cathedral mountains, he saw silver clouds below 
He saw everything as far as you can see 
And they say that he got crazy once and he tried to touch the sun 
And he lost a friend but kept the memory 

Now he walks in quiet solitude the forest and the streams 
Seeking grace in every step he takes 
His sight has turned inside himself to try and understand 
The serenity of a clear blue mountain lake 

         G A D 
And the Colorado rocky mountain high
      G A D  
I've seen it rainin' fire in the sky
 G A D Em F#m G *       
Talk to God and listen to the casual re...ply
                D Em G A  
Rocky mountain high (Colorado) 
                D Em G A 
Rocky mountain high (Colorado) 

Now his life is full of wonder but his heart still knows some fear 
Of a simple thing he cannot comprehend 
Why they try to tear the mountains down to bring in a couple more 
More people, more scars upon the land 

         G A D 
But the Colorado rocky mountain high
      G A D  
I've seen it rainin' fire in the sky
   G A D Em F#m G *
I know he'd be a poorer man if he never saw an ea...gle fly 
                D Em 
Rocky mountain high 

        G A D 
It's a Colorado rocky mountain high
      G A D  
I've seen it rain fire in the sky
  G A D</s