Month: August 2013

Another Rainy Day Chords – Aiza Seguerra

 Another Rainy Day
Aiza Seguerra
Tabbed By: naguenyong vinx

    F# BM7 F# 
   Just another rainy day
                BM7 
   I can't go out and play
             Bbm7 Fm7 , F# 
   I'm staring at the window
                                C# 
   Wondering how to pass the time away, ohh

    F# BM7 F# 
   Can I call you on the phone
               BM7  
   I feel so all alone
           Bbm7 Fm7 , F# 
   But I forgot your number
                            C# 
   Making me really feel so zany

              Refrain 1
                F# Bbm7 BM7 
   'Cause it's just another rainy day
           F# Bbm7 BM7 C# 
   You're just another phonecall away
    Bbm Ebm 
   What's your number, I can't remember
    Abm C# 
   I wish I could talk to you

   (Repeat Refrain 1 except last word)

                F# - BM7 - F# - BM7 
        ... today

                Bridge
                   Bbm Abm F# Bbm 
   A friend like you could brighten up a rainy day
    BM7 Bbm7 - BM7 C# 
   You and I could chase the cloud away
      F# Bbm BM7 C# 
   But what's your number, I can't remember
    BM7 C# D 
   Wish that I could talk to you

               Refrain 2
    G Bm7 CM7 D 
   'Cause it's just another rainy day
                 G Bm7 CM7 D    
   And you're just another phonecall away
    Bm Em 
   But what's your number, I can't remember
    Am D 
   I wish I could talk to you

   (Repeat Refrain 2 except last word)

                 (coda)
           ... today

              Coda
    G Bm7 CM7 D 
   Just another rainy day, hmmm
    G Bm7 CM7 D 
   Just another rainy day, hey
    G Bm7 CM7  hold  G  hold
   Just another rainy day

Akala Mo Chords – Aiza Seguerra

 Akala Mo
Aiza Seguerra
Tabbed By: naguenyong vinx

   Intro:  C - F - G -; (3x)
           C - F  pause

        C 
   Akala mo hindi ko nakita
      Am Em Dm - G 
   Maligaya ka pag ako ay masaya
     C 
   Akala mo hindi ko naisip
      Am Em Dm - G 
   Na kasama ako sa iyong panaginip  

   Dm Em 
   Bawat sabihin ko 
                    Am 
   Alam ko nakinig ka
   F Dm 
   Akala mo siguro
       G F - G 
   Hindi ko nakita

             Chorus
   C Em  
   Akala mo hindi ko pansin
         Bb A7 Dm 
   Akala mo hindi ko alam
   Fm/Ab 
   Mahal mo nga ako kahit
   C/G Am 
   Hindi mo man sabihin
   Dm G C - Am - G7sus 
   Akala mo hindi ko napansin

   C 
   Akala mo hindi ko narinig
                Am Em Dm - G 
   Ang tibok ng puso mo't kaba ng dibdib
   C 
   Akala mo hindi ko nadama
           Am Em Dm - G 
   Na may kasama ako sa lungkot at saya

   Dm  
   Kapag kailangan kita
   Em Am 
   Dumarating ka
   F Dm 
   Akala mo siguro
   G G7 
   Hindi ko nakita

   (Repeat Chorus except last word)

                  C G#7 
       ... napansin 

   (Repeat Chorus moving chords 1/2  step higher,
    except last word)

                   Bbm - Eb7  
       ... napansin 

   Gbm  
   Akala ko gano'n lang yon
   Db Bb 
   Akala ko 'yon kahit noon
   Ebm Ab Db - Gb - Ab - Db - Gb - Ab - Db 
   Akala mo hindi ko napansin

Wonder Milky Bitch Chords – Air

 F#m F C/G G  2x
 F#m D7 F#m Dm F#m F 
This is the story of a country girl 
 C/G G 
Back in town from her country house 
 F#m F 
She came to me with her muddy boots
 C/G G 
She destroyed all my carpet

 F#m D7 F#m Dm F Bb 
You know how to do it 
 Am Bb 
Wonder milky bitch 
 Eb C 
You don't wear cosmetic 
 Eb C 
You don't like arithmetic 
 F Bb 
You know how to do it 
 Am Bb 
Wonder milky bitch 
 Eb C 
Tasting,touching,swallowing me 
 Eb C 
Drinking me like bloody mary
 F Bb 
You know how to do it 
 Am Bb 
Wonder milky bitch 
 Eb C 
You don't wear cosmetic 
 Eb C 
You don't like arithmetic
 F Bb 
You know how to do it 
 Am Bb 
Wonder milky bitch 
 Eb C 
Tasting,touching,swallowing me 
 Eb C 
Drinking me like bloody mary

 F Bb Am Bb Eb C Eb C F Cm F Cm 
Wonder milky bitch 
 F Cm 
Wonder milky bitch 
 F Cm 
Wonder milky bitch 
 F Cm 
Wonder milky bitch

The One Who Loves You Now Chords – Agnetha Faltskog

 Original Capo 2


Intro:  G C G D7 G 
Everything I ever had
    C  
I let it slip away 
 G 
Every dream I ever dreamed
      D7  
Was crossed until today 
     G 
For I have seen tomorrow 
 C 
Where my future lies 
    G 
I see it every time 
         D7 
When I look into
      D G 
Your beautiful eyes 

     C G 
Oh, I'm holding on now 
 Bm E 
I'm holding on now 

 A E 
Love, don't let me go 
 F#m A 
Love, please let me know 
 D A 
Have you been waiting 
 Bm E 
Just the way that I've been waiting 

 A E 
Love, don't let me go 
 F#m A 
Love, please let me show 
 D A 
How much I want to 
 Bm E A 
Be the one who loves you now 

 G 
Maybe I was too afraid 
    C 
To show my broken heart
 G  
Fading in the shadows 
         D7  
And my world just came apart 

 G 
Looking at you now 
               C 
I feel what I never felt before 
      G 
But I am finally ready 
    D7 
To risk it all once more
 
 A E 
Love, don't let me go 
 F#m A 
Love, please let me know 
 D A 
Have you been waiting 
 Bm E 
Just the way that I've been waiting 

 A E 
Love, don't let me go 
 F#m A 
Love, please let me show 
 D A 
How much I want to 
 Bm E A 
Be the one who loves you now 

 F#m A 
You can believe in taking chances 
 E 
Oh…
 F#m E C#m             
Baby, take this one with me 
           D F#m 
Can't you see what I see 
             E 
I'm holding on 


     => change now to Capo 4

 A E 
Oh, love, don't let me go 
 F#m A 
Love, please let me know
 D A  
Have you been waiting 
 Bm E 
Just the way that I've been waiting 

 A E 
Love, don't let me go 
 F#m A 
Love, please let me show 
 D A 
How much I want to
 Bm E A E F#m A  
Be the one who loves you now 

(Please let me show)
 D A 
How much I want to
 Bm E A                 
Be the one who loves you now 
 D A 
Mmmh… 
 Bm E A 
Be the one who loves you now.

Guessing Chords – Against The Current V2

 I am unsure of what key this is in, but I play it in the key of E. This is quite a 
bit lower than how Chrissy sings it, but it fits my voice. You can capo it to fit 
your style/range.

Standard Tuning
 Em7  [022033]
 Gmaj9  [200233]
 G  [320033]
 Cadd9  [x32033]

Intro:

 Em7 ,  Gmaj9 ,  G ,  Cadd9 

The rhythm is DUD D. In between the pauses, switch chords. Listen to the original 
song to get the rhythm right.

Verse:
Played exactly like the intro.

Prechorus:
Same chords, just play them with no pauses.

Chorus:

 G ,  Gmaj9 ,  Em7 ,  Cadd9 

REPEAT EVERYTHING! :)

Bridge:
Play like the prechorus

Then loop back to the first line of the first verse, and then back to the chorus! 
The chorus goes once almost through until "i could let you go" and then loops back 
to the beginning again. 

Differences We Display Chords – Adam Wedd

 Differences We Display - Adam Wedd
Key | G  |    [Gb] [guitar tuned down half a semi-tone]]

INTRO|  G  /  Em  /  C  /  D   /    Bm  /  Am  /  D  /  G 

VERSE 1
 G C 
Are you happy now where you stand?
 G C 
I'll hold your heart if you hold my hand.

PRE-CHORUS
 C Em Em/F# G C 
There's still these people and places and things that we'll never know
 C Em Em/F# G C 
So may we be romanced & mysteried , enchanted by where we'll go.

CHORUS
 G Em C D 
Will I still anticipate, what the stars look like when we're old and grey
 G Em C D 
Will I still anticipate where we'll go each day.
 Bm Am D G 
       These are the differences that we display, 
 C Am D G 
      These are the differences that we display, 

VERSE 2

 G C                                      
We'll go up these mountains and come down again
 G C 
then we'll go trekking across these distant lands

PRE-CHORUS
 C Em Em/F# G C 
There's still these spiders and things that you don't like that get in the way
 C Em Em/F# G C 
So may we be romanced and msyteried , enchanted every day

CHORUS 2
 G Em C D 
Will I still anticipate, what the stars look like when we're old and grey
 G Em C D 
Will I still anticipate where we'll go each day.
 Em Am 
Oh now, you know I'm late,
 C D 
but I know you do appreciate.
 Bm Am D G 
   all these differences that we display
 Cm Am D G 
   There's all these differences that we display

INSTRUMENTAL |  G  /   Em  /  C   /  D 

CHORUS 3
 G Em C D 
Will I still anticipate, what the stars look like
 G Em C D    [ Eb  passing chord]
Will I still anticipate when we'll old and grey
 Em Am C D 
Oh no, you know Im late, but you know I do appreciate.
 Bm Am D G 
   all these differences that we display
 C Am D G 
   there's still these differences that we display
 Cm Am D G 
   Theres all these differences that we display.

Walk All Over You Tabs by Ac Dc V3

 WALK ALL OVER YOU  by  AC DC


Andy The Axman

This is a complete version of song........

Intro x4 
e|-----------------3--------------------------------------------------------|
B|-----------------3--------3-----------------------------------------------|
G|--1--------------0--------2--------2--------------------------------------|
D|--2--------------0--------0--------2--------------------------------------|
A|--2--------------x-----------------0--------------------------------------|
E|--0----------0-2-3--------------------------------------------------------|

INTERLUDE x8 
e|-------3-3----------------------------------------------------------------|
B|-------3-3-----3----------3-----------------------------------------------|
G|--1-1--0-0-----2----2-2---2----2------------------------------------------|
D|--2-2--0-0-----0----2-2---4----2------------------------------------------|
A|--2-2--x-x----------0----------0------------------------------------------|
E|--0-0--3-3----------------------------------------------------------------|

Verse- 1
 Outta my way i'm running high........
e|------------------------------3---3-3---3-3----3-------------------------|
B|------------------------------3---3-3---3-3----3--3--3--3--3-------------|
G|--1---------------------------0---0-0---0-0----0--2--2--2--2------1-------|
D|--2---------------------------0---0-0---0-0----0--0--0--0--0------2-------|
A|--2---------------------------x---x-x---x-x----x------------------2-------|
E|--0---------------------------3---3-3---3-3----3------------------0-------|

e|------------------------------3---3-3---3-3----3-------------------------|
B|------------------------------3---3-3---3-3----3--3--3--3--3-------------|
G|--1---------------------------0---0-0---0-0----0--2--2--2--2------1-------|
D|--2---------------------------0---0-0---0-0----0--0--0--0--0------2-------|
A|--2---------------------------x---x-x---x-x----x------------------2-------|
E|--0---------------------------3---3-3---3-3----3------------------0-------|
end of verse: x 1
e|------------------------------3---3-3---3-3----3-------------------------|
B|------------------------------3---3-3---3-3----3--3--3--3--3-------------|
G|--1---------------------------0---0-0---0-0----0--2--2--2--2------2-------|
D|--2---------------------------0---0-0---0-0----0--0--0--0--0------2-------|
A|--2---------------------------x---x-x---x-x----x------------------0-------|
E|--0---------------------------3---3-3---3-3----3-------------------------|

ain't a looking for a womens love....

BRIDGE
e|--------------------------------------------------------------------------|
B|---------------------------3-------3--------------------------------------|
G|-----------------------2---2---2---2---2--2-------------------------------|
D|-----------------------2---4(0)2---4(0)2--2------------------------------|
A|-----------------------0-------0-------0--0-------------------------------|
E|--------------------------------------------------------------------------|

Verse -2
e|------------------------------3---3-3---3-3----3-------------------------|
B|------------------------------3---3-3---3-3----3--3--3--3--3-------------|
G|--1---------------------------0---0-0---0-0----0--2--2--2--2------1-------|
D|--2---------------------------0---0-0---0-0----0--0--0--0--0------2-------|
A|--2---------------------------x---x-x---x-x----x------------------2-------|
E|--0-----------------------0-2-3---3-3---3-3----3------------------0-------|

e|------------------------------3---3-3---3-3----3-------------------------|
B|------------------------------3---3-3---3-3----3--3--3--3--3-------------|
G|--1---------------------------0---0-0---0-0----0--2--2--2--2------1-------|
D|--2---------------------------0---0-0---0-0----0--0--0--0--0------2-------|
A|--2---------------------------x---x-x---x-x----x------------------2-------|
E|--0----------------------

Think Dirty Out Loud Tabs by A Lot Like Birds

 -------------------------------------------------------------------------------
                 Think Dirty Out Loud - A Lot Like Birds
-------------------------------------------------------------------------------
Tabbed by: Collen Wiegand
E-mail: collex5@gmail.com

Guitar I

  Part A  (Intro)
e|--------------------------------------------------------|\
B|--------------------------------------------------------| \
G|--------------------------------------------------------|  Repeat
D|--------------------------------------------------------|  x4
A|---------------3-------3h5-5-------------3-------3h5-5--| /
E|--3h5-5--0h3h5---5p3p0------3h5-5--0h3h5---5p3p0--------|/

e|---------------------|
B|---------------------|
G|---------------------|
D|--------2p0----------|
A|-----3p0---3p0-2-----|
E|--5p0------------3-0-|

Guitar II

  Part A (After 2 Repeat of Guitar I)
e|---------------------------------------------------------------------------|\
B|---------------------------------------------------------------------------| \
G|---------------------------------------------------------------------------|  Repeat
D|---------------6-------6h7-7--------------6-------6h7-7--------------------|  x2
A|--7h8-8--0h7h8---8p7p0-------7h8-8--0h7h8---8p7p0--------------------------| /
E|---------------------------------------------------------------------------|/

Guitar I

  Part B (Verse)
e|-0---------0--------0---------0----0-0-0----------0--|
B|-8---------4--------1---------4----4-5-8-0-0------4--|
G|-9---------5--------2---------5----------5-4---------|
D|-----------------------------------------------------|
A|-----------------------------------------------------|
E|-----------------------------------------------------|

e|--8---------5---------3---------2----0-0-0-0-----0--0--0--0---|
B|--0---------0---------0---------0----4-5-7-8----11-11-11-12\--|
G|--------------------------------------------------------------|
D|--------------------------------------------------------------|
A|--------------------------------------------------------------|
E|--------------------------------------------------------------|

Guitar II

  Part B [r = Reast]
e|--r---7p0-0-2p0-----------------------------0--0-0--------------------------|
B|----------------0-7p0-4h7p4p0---------4p0---5--4-4--------------------------|
G|------------------------------5p0-4h5-----5---------------------------------|
D|----------------------------------------------------------------------------|
A|----------------------------------------------------------------------------|
E|----------------------------------------------------------------------------|

e|--r---5p0-0-2p0-------------------------------------------------------------|
B|----------------5p0-1h4p1p0---------1p0---4---------------------------------|
G|----------------------------2p1p0h2-----2-----------------------------------|
D|----------------------------------------------------------------------------| 
A|----------------------------------------------------------------------------|
E|----------------------------------------------------------------------------|

e|--r---7p0-0-2p0-----------------------------0--0-0--------------------------|
B|----------------0-7p0-4h7p4p0---------4p0---5--4-4--------------------------|
G|------------------------------5p0-4h5-----5---------------------------------|
D|----------------------------------------------------------------------------|
A|----------------------------------------------------------------------------|
E|----------------------------------------------------------------------------|

e|--r---5p0-0-2p0-------------0-0-0----------0--------------------------------|
B|----------------5p0-1h4p1p0-4-5-8-0-0------4--------------------------------|
G|----------------------------------5-4---------------------------------------|
D|------------------------------------------------------------

Sige solo Tabs by 6 Cycle Mind V2

 eto ung sa Chorus lang ung sa lead...ndi ako sure dito pero mukhang okay naman..
|----------------------------13p12--------------|
|----------------13~----13--------13------------|
|------12---12h14-----12--12--------12----------|
|----14--14-------------------------------------|
|--15-------------------------------------------|
|-----------------------------------------------|

yan ung andun...kapa ko lang yan pero ayos naman..

Tabbed By:Lavern Vasallo
Date     :August 23, 2013

I Miss You Chords – 5 Seconds Of Summer V3

                               I Miss You - 5 Seconds Of Summer
      -------------------------------------------------------------------------------

I've watched the guys playing this song and I think they use the same chords as 
the original (by Blink 182), but no so sure, anyway, I think it sounds good.
 First you have the chords used by Guitar 1 (Calum) and then by Guitar 2 (Luke).
 They are based on this video: http://www.youtube.com/watch?v=wdPufQd33fM

*Capo: No capo needed, but read below.
*Tunning: The original is played half-step down (D#,G#,C#,F#,A#,d#) but you can 
use standard tunning (EADGBe), I'm not sure how they play it. If you use stardard 
tunning try with a capo on the 1st fret, or just don't use it.
*Strumming pattern: You can play D DUDUD for the verses and D DDD for the chorus.
*Chords:  (654321)
        C :  x32010
      C/B :  x22010
       Am :  x02210
        G :  320033
    Cadd9 :  x20010
        F :  133211 or x03210
       Fm :  133111 or x03010 

Here we go (:

-------------------------------------------


GUITAR 1

Intro: { C C/B Am Cadd9 } x2

Verse: **NOTE: I'M NOT SURE ABOUT THE "CADD9" IN THE VERSES, THEY COULD BE "G".**

   C C/B 
Hello there, the angel from my nightmare
  Am Cadd9 
The shadow in the background of the morgue
             C C/B 
The unsuspecting victim of darkness in the valley
    Am Cadd9 
We can live like Jack and Sally if we want
                  C 
Where you can always find me
            C/B 
We'll have Halloween on Christmas
    Am Cadd9 
And in the night we'll wish this never ends
                    C  
We'll wish this never ends.

Interlude:

    C Cadd9 Am G   
(I miss you, I miss you)
    C Cadd9 Am G                     
(I miss you, I miss you)

Verse: **SAME HERE WITH "CADD9", YOU CAN PLAY "G"**

 C C/B 
Where are you and I'm so sorry
   Am Cadd9 
I cannot sleep I cannot dream tonight
                     C 
I need somebody and always
      C/B 
This sick strange darkness
       Am Cadd9 
Comes creeping on so haunting every time
                   C 
And as I stared I counted
   C/B 
Webs from all the spiders
 Am Cadd9 
Catching things and eating their insides
                    C 
Like indecision to call you
     C/B 
and hear your voice of treason
      Am Cadd9 
Will you come home and stop this pain tonight,
                  C  
Stop this pain tonight.


Chorus: **= D strokes with accent.

 C **           Cadd9 **         Am **          G **
Don't waste your time on me, you're already
     F Fm 
The voice inside my head (I miss you, I miss you)
 C **           Cadd9 **         Am **          G **
Don't waste your time on me, you're already
     F Fm 
The voice inside my head. 

   C Cadd9 Am G   
(I miss you, I miss you)
    C Cadd9 Am G                     

Bridge: *= D stroke.

 C *            Cadd9 *         Am *          G *
Don't waste your time on me, you're already
     F *                <sp

Heartbreak Girl Chords – 5 Seconds Of Summer V10

 This is my first tab and i hope you like it :)
it is also easy to play . ENJOY :)
Capo 2 :">


             G 
You call me up,
                   F# 
Its like a broken record
                  Em7 Dsus4 
Saying that your heart hurts
             Cadd9 
Thought you'd never get over him getting over you,
 G F# 
And you end up crying
              Em7 Dsus4 
And I end up lying,
       Cadd9 
Cause I'm just a sucker for anything that you do,

 G F# 
And when then phone call finally ends,
                             Em 
You say "thanks for being a friend"
     Dsus4 
And I'm going in circles again and again. 

 G F# 
I dedicate this song to you
                            Em7 
The one who never sees the truth
                           Cadd9 
That I can take away your hurt, Heartbreak girl
 G                             
Hold you tight straight through to day light,
 F# Em7 Cadd9 
I'm right here when you gonna realize that I'm your cure Heartbreak girl,

           G F# 
I bite my tongue but I wanna scream out
                 Em7 
You can be with me now
     Cadd9 G 
But I end up telling you what you wanna hear,
                F# Em7 Dsus4 
But you're not ready and its so frustrating
    Cadd9 G 
He treats you so bad and I'm so good to you its not fair.

                                 F# 
And when the phone call finally ends
                                  Em7 
You say ill call you tomorrow at 10
     Cadd9 
And I'm stuck in the friend zone again and again,

 G F# 
I dedicate this song to you
                            Em7 
The one who never sees the truth
                           Cadd9 
That I can take away your hurt, Heartbreak girl
 G                             
Hold you tight straight through to day light,
 F# Em7 Cadd9 
I'm right here when you gonna realize that I'm your cure Heartbreak girl,

 Em7 Cadd9 
I know someday its gonna happen
            G F#  
And you'll finally forget the day you met him
 Em7 Cadd9 
Sometimes we're so close to preventing
         G F# 
I gotta get it through your head that you belong with me instead,

 G F# 
I dedicate this song to you
                            Em7 
The one who never sees the truth
                           Cadd9 
That I can take away your hurt, Heartbreak girl
 G                             
Hold you tight straight through to day light,
 F# Em7 Cadd9 
I'm right here when you gonna realise that I'm your cure Heartbreak girl,

 G F# 
I dedicate this song to you
                            Em7 
The one who never sees the truth
                           Cadd9 
That I can take away your hurt, Heartbreak girl
 G                             
Hold you tight straight through to day light,
 F# Em7 Cadd9 
I'm right here when you gonna realise that I'm your cure Heartbreak girl,

Everything I Want Chords – 5 Seconds Of Summer V2

 Hiii!! I hope it sounds ok! :) 
follow me on twitter @mashtonishing

This is the way Michael plays the chords:

 C    8  10 10  9  8  8
 Dm   10 12 12 10 10 10 
 F    1  3  2  2  1  1  

 Am   5  7  7  5  5  5
 G    3  5  5  4  3  3

(*= one strum)
(no capo)

Intro:  C Dm F  x2


 C Dm F  
They can say what they say 
 C Dm F 
I just want you to believe
 C Dm F 
Months have past, it's still dark
 C Dm F 
I have loved you the start

 Am           
You're so beautiful 
     G 
And you're incredible
 Am        
Irreplaceable
 F G  
I never wanna lose my baby 

[Chorus:]
      C F 
But you are everything I want 
                   Am 
And everything I need
       
It's all because of you 
 G 
I could barely breathe
 F *                      C 
Whenever you wake up in the morning,
                 F 
It's a brighter day
                   Am 
We settle the high seas
                  
Cause baby you and me,
 G                 
We could always be
 F *                             
I just wanna call you mine


 C Dm F  x2


 C Dm F  
I get down on one knee
 C Dm F  
Baby please please take me
 C Dm F  
Whisper in reply
 C Dm F  
With a tear in your eye

 Am           
Bu you're so beautiful 
     G 
And you're incredible
 Am        
Irreplaceable
 F G  
I never wanna lose my baby 

[Chorus:]
      C F 
But you are everything I want 
                   Am 
And everything I need
       
It's all because of you 
 G 
I could barely breathe
 F *                           C 
Whenever you wake up in the morning,
                 F 
It's a brighter day
                   Am 
We settle the high seas
                   G 
Cause baby you and me,
                  F *
We could always be



 F G Am 
Take take take it all away 
         C F 
There's nothing left to say
  G Am C             
Now I feel remorse
 F G Am 
Take take take it all away
         C F 
There's nothing left to feel
                         G G G 
And the pain is just too real



      C *                    F *
But you are everything I want 
                   Am *
And everything I need
                     G 
It's all because of you 

[Chorus:]
      C F 
But you are everything I want 
                   Am 
And everything I need
       
It's all because of you 
 G 
I could barely breathe
 F *                       C 
Whenever you wake up in the morning,
                 F 
It's a brighter day
                   Am 
We settle the high seas
                   G 
Cause baby you and me,
                
We could always be
 F *                             
I just wanna call you mine

Up In The Air Acoustic Chords – 30 Seconds To Mars V2

 30 Seconds To Mars - Up In The Air

Tabbed by themissionary 
If you have wishes or improvements, please send me a mail.
E-mail: a.brand.new.name.capricorn@gmail.com
Enjoy!
Standard Tuning

                     C#m 
I've been up in the air
           G# 
Out of my head
           F#m 
Stuck in a moment of emotion
           C#m G# 
I destroyed
            F#m 
Is this the end I feel?
           C#m 
Up in the air
            G# 
Fucked up on life
             F#m 
All of the laws I've broken
                      C#m G# 
Loves that I've sacrificed
             F#m G# 
Is this the end...?


 Em                             
I'll wrap my hands around your neck
 F#m 
So tight with love, love


 C#m Em Bm F#m 
a thousand times I tempted fate
 A 
a thousand times I played this game
 C#m Em Bm F#m 
a thousand times that I have said
 A B 
Today, today, today

   C#m Em Bm 
Whoah, oh oh oh oh oh
  F#m A 
Whoah, oh oh oh oh oh
 C#m Em Bm  
Whoah, oh oh oh oh oh
  F#m A 
Whoah, oh oh oh oh oh



                     C#m 
I've been up in the air
             G#  
Lost in the night
              F#m 
I wouldn't trade an eye for your lies
                  C#m G# 
Your lust for my life
              F#m 
Is this the end?
                         C#m 
You were the love of my life
             G# 
Darkness the light
              F#m 
This is a portrait of a tortured
         C#m G# 
you and I
          F#m G# 
Is this the, Is this the, Is this the end?

 Em 
I'll wrap my hands around your neck
 F#m 
So tight with love love love


 C#m Em Bm F#m 
a thousand times I tempted fate
 A 
a thousand times I played this game
 C#m Em Bm F#m 
a thousand times that I have said
 A 
Today, today, today
 C#m Em Bm F#m 
a thousand times I tempted fate
 A 
a thousand times I played this game
 C#m Em Bm F#m 
a thousand times that I have said
 A B 
Today, today, today

   C#m Em Bm 
Whoah, oh oh oh oh oh
  F#m A 
Whoah, oh oh oh oh oh
 C#m Em Bm  
Whoah, oh oh oh oh oh
  F#m A 
Whoah, oh oh oh oh oh



             Em         
I've been up in the air
             F#m 
Is this the end I feel?
           A 
Up in the air
           F#m 
Chasing a dream so real
                     Em 
I've been up in the air (I'll wrap my hands around your neck...)
            F#m 
Is this the end I feel?
           A 
Up in the air
           F#m 
Chasing a dream, chasing a dream

         C#m E Bm 
Take no more
        F# A 
Take no more
         C#m E Bm 
Take no more
         F# A 
I'll take no more

 C#m Em Bm F#m

Ikaw At Ako Chords – 143

 IKAW AT AKO
BY 143
ALBUM IKAW AT AKO
STANDARD TUNING
TABS GUITAR TABS
       B2 E2 F#2 
e-|---11------|---4----|---6----|
B-|---12------|---5----|---7----|
G-|---11------|---4----|---6----|
D-|-----------|--------|--------|

=====eBGDAE 
 B ====776997
 F# ===223442
 G#m =444644
 E       =001220  
YUKI
 B2 (1) E2 (2) F#2 (2)
Ikaw, ikaw at ako
Ay parang aso't pusa
Kapag nag-away tayo
 B2 (1) E2 (2) F#2 (2)
Ikaw, ikaw at ako
Ay parang langis at tubig
Kapag nagsama tayo
GOLD
 B F# G#m E 
Ngunit kahit ganun ang sitwasyon
 B F# E F# 
Ikaw pa rin naman ang nilalaman nitong pusong...




ALL
 B E F# 
Kahit na inaalila mo ako
 B E F# 
At kahit na sinasaktan mo na ako
 B G#m E 
Oh kay sarap pa rin naman
 F# 
Sa piling mo
ANJO SAME CHORDS AS YUKI
Ikaw, ikaw at ako
Ay parang lubak at kotse
Kapag may tampuhan tayo
ARGEE SAME CHORDS AS YUKI
Ngunit kahit na anong iwas ang gawin
Ay sa 'yo pa rin bumabagsak
Itong pusong...
ALL
Kahit na inaalila mo ako
At kahit na sinasaktan mo na ako
Oh kay sarap pa rin naman
Sa piling mo

YUKI
Ngunit kahit ganun ang sitwasyon
Ikaw pa rin naman ang nilalaman nitong pusong...

REPEAT ALL
 B E F# 
Ikaw at ako lang naman
Ikaw at ako lang naman

Fix Me Tabs by 10 Years

 10 Years - Fix Me 

Tuning: C# G# C# F# A# D#

Tabbed by: Tim Wilhelm (BigTim72) [timwilhelm72@yahoo.com]

08/21/2013



Intro (Lead) [Clean]

D#|----------------------------------|
A#|----------------------------------|
F#|--------10------------------------|
C#|------0----0----8----8-7----7-----| x2
G#|---10--------10---10-----10---10--|
C#|-0--------------------------------|

Verse (Rhythm & Lead) [Clean]

D#|-------------------------------------------------|
A#|-6~----------------------------------------------|
F#|-7~----------------------------------------------|
C#|-0~----/7--5--5-5h7p5-0--10~--10~-10-------1010~-| x4
G#|-0~-----------------------8~---8~--8~-------8~8~-|
C#|-0~-----------------------8~---8~--8~-------8~8~-|

Pre-Chorus (Lead) [Heavy Distortion]

D#|--------------------------------------------------------------------|
A#|--------------------------------------------------------------------|
F#|-------------------------------------------------------------9~10~--|
C#|-8-0~00~--8~--7~-7~-7h8~-8-0~00~--8~--7~--7h10~-8-0~00~--8~---------|
G#|-8-0~00~-10~-10~10~1010~-8-0~00~-10~-10~-10~10~-8-0~00~-10~---------|
C#|-8-0~00~-----------------8-0~00~----------------8-0~00~-------------|

D#|--------------------------------|
A#|--------------------------------|
F#|--------------------------------|
C#|-8~-8~-8~-8~-8/10~10~10~-xx-xx--|
G#|-8~-8~-8~-8~-8/10~10~10~-xx-xx--|
C#|-8~-8~-8~-8~-8/10~10~10~-xx-xx--|

Pre-Chorus (Rhythm) [Heavy Distortion]

D#|--------------------------------------------------------------------|
A#|--------------------------------------------------------------------|
F#|--------------------------------------------------------------------|
C#|-8-0~00~-----------------8-0~00~----------------8-0~00~-------------|
G#|-8-0~00~-----------------8-0~00~----------------8-0~00~-------------|
C#|-8-0~00~-----------------8-0~00~----------------8-0~00~-------------|

D#|--------------------------------|
A#|--------------------------------|
F#|--------------------------------|
C#|-8~-8~-8~-8~-8/10~10~10~-xx-xx--|
G#|-8~-8~-8~-8~-8/10~10~10~-xx-xx--|
C#|-8~-8~-8~-8~-8/10~10~10~-xx-xx--|

Chorus (Lead) [Heavy Distortion]

{Determine your own strumming patern for the 8, 10, & 5 power chords}

D#|----------------------------------------------|
A#|----------------------------------------------|
F#|----------------------------------------------| 
C#|-8~---8/10~---\5~---5555/7777/8888/10101010---| x2
G#|-8~---8/10~---\5~---5555/7777/8888/10101010---|
C#|-8~---8/10~---\5~---5555/7777/8888/10101010---|

Chorus (Rhythm) [Heavy Distortion]

D#|----------------------------------------------|
A#|----------------------------------------------|
F#|----------------------------------------------| 
C#|-8~---8/10~---\5~---5555/7777/8888/10101010---| x1
G#|-8~---8/10~---\5~---5555/7777/8888/10101010---|
C#|-8~---8/10~---\5~---5555/7777/8888/10101010---|

D#|--------------------------------------------|
A#|--------------------------------------------|
F#|-10----10----10----10----9----9----7---7----|
C#|----12----12----12----12---10---10---8---8--| x3
G#|--------------------------------------------|
C#|--------------------------------------------|
     .  .  .  .  .  .  .  . .  . .  . . . . .

D#|----------------------------|
A#|----------------------------|
F#|----------------------------| 
C#|-5555/7777/8888/10101010-0~-| 
G#|-5555/7777/8888/10101010-0~-|
C#|-5555/7777/8888/10101010-0~-|

Pre-Verse 2 (Lead) [Clean]

D#|----------------------------------|
A#|----------------------------------|
F#|--------10------------------------|
C#|------0----0----8----8-7----7-----| x2
G#|---10--------10---10-----10---10--|
C#|-0--------------------------------|

Verse 2 (Rhythm & Lead) [Clean]

D#|-------------------------------------------------|
A#|-6~----------------------------------------------|
F#|-7~---------------------

Vertical Chords – 1 Girl Nation

 Hey guys! This tab is for 1 Girl Nation's "Vertical"! It's my favorite song off 
their new album "1 Girl Nation". Check out my tab for "While We're Young" as well. 
Thanks and enjoy! 


                        1 GIRL NATION - Vertical
                              CAPO on 4


Intro:  Em C G D Em C 
  All the broken, all the hopeless
 G D 
  Strangers in need
 Em C                  
  They are with us, they are Jesus
 G D 
  All the least of these 
 Em C G D 
Oh Oh Oh Lord how we need Your strength to stand
 Em C G D 
Oh Oh Oh Lord help us be Your feet and hands


               Em C 
We're going vertical, praying for miracles
             G D 
Wanna see Heaven here on earth
              Em C 
Lifting our hands up high, people of God unite
          G D 
Together we can change this world
               Em C 
We're going vertical Oh Oh Oh
               G D 
We're going vertical Oh Oh Oh
               Em C 
We're going vertical, praying for miracles
             G D 
Wanna see heaven here on earth


 Em C                
  All my brothers, all my sisters
 G D 
  Children of God
 Em C               
  We're His reflection, a generation
 G D 
  Called to share His love
 Em C G D 
Oh Oh Oh Lord how we need Your strength to stand
 Em C G D 
Oh Oh Oh Lord help us be Your feet and hands


               Em C 
We're going vertical, praying for miracles
             G D 
Wanna see Heaven here on earth
              Em C 
Lifting our hands up high, people of God unite
          G D 
Together we can change this world
               Em C 
We're going vertical Oh Oh Oh
               G D 
We're going vertical Oh Oh Oh
               Em C 
We're going vertical, praying for miracles
             G D 
Wanna see heaven here on earth


 Em C       
  Oh Oh People put your hands up
  G D 
Wave them in the air gonna show the world His love [4x]


Instrumental:  Em C G D   [2x]


               Em C 
We're going vertical, praying for miracles
             G D 
Wanna see Heaven here on earth
              Em C 
Lifting our hands up high, people of God unite
          G D 
Together we can change this world
               Em C 
We're going vertical Oh Oh Oh
               G D 
We're going vertical Oh Oh Oh
               Em C 
We're going vertical, praying for miracles
             G D 
Wanna see heaven here on earth
              Em 
We're going vertical


~julieeheeart08 ;)

Live For You Chords – 1 Girl Nation

 Hey guys! This tab is for 1 Girl Nation's "Live For You". I got this song by ear 
so feel free to correct me! Also, check out my other 1 Girl Nation tabs! Thanks and God bless!

                    
                      1 GIRL NATION - Live For You
                                CAPO on 4


Intro:  C G Em D C G D C G 
  On the curb just chillin' at the bus stop
 Em D 
Trying to feel dope in my brand new high-tops
  C G D 
And my brain can't explain all the ways I feel You You Yeah
 C G 
  Sixteen so mean in my school day
 Em D 
All the kids laugh but I, I love You anyway
 C G D 
Everything disappears when I put my mind on You You yeah


        C G 
Been through a lot of games, but I ain't mad at it
       Em D      
Cause You make me light up just like matches
     C G D  
If only I could find the words to say to say to say


         C G 
Can't think, can't speak when I feel Your grace
            Em D 
Cause you love me up to outer space
             C G 
You really blow my mind like dynamite 
           D 
And I'm always gonna live for You
            C G 
I live for You, I live for You
             Em D 
LA LA LA LA LA LA  I live for You 
            C G  
I live for You, I live for You
             D 
LA LA LA LA LA LA I live for You Yeah


 C G 
  I'm like a work of art made in Your hands
      Em                            
Van Gough couldn't draw like You
  D 
Help me understand that
  C 
Heaven ain't far away 
  G D 
When You shine Your light on me me me
      C G 
You tell me all the things that I, I need to hear 
          Em D 
Cause I know my heart ain't always in the clear 
      C                 
But though You seem far away 
       G D 
You always keep Your hand on me me me


        C G 
Been through a lot of games, but I ain't mad at it
       Em D      
Cause You make me light up just like matches
     C G D  
If only I could find the words to say to say to say


         C G 
Can't think, can't speak when I feel Your grace
            Em D 
Cause you love me up to outer space
             C G 
You really blow my mind like dynamite 
           D 
And I'm always gonna live for You
            C G 
I live for You, I live for You
             Em D 
LA LA LA LA LA LA  I live for You 
            C G  
I live for You, I live for You
             D 
LA LA LA LA LA LA I live for You Yeah


             C 
Yeah I've always been the good girl 
            G 
trying to make it in this big world 
      Em      
If there's no pain no gain gotta play the game
      D 
With You I'm winning all my life
      C G 
You love me to the moon back and forth I know that
          D 
I can't blink, I can't sleep, I can't think, I can't speak 

God, You got me tongue-tied

         C G 
Can't think, can't speak when

Count Your Rainbows Chords – 1 Girl Nation

 Hey people! This tab is for 1 Girl Nation's "Count Your Rainbows". I got this song 
by ear so feel free to correct me! Thanks for viewing, guys! It means the world! 
 

                  1 GIRL NATION - Count Your Rainbows
                                CAPO on 4


 C 
  Feels like you're all alone
 
Stuck in these highs and lows
 F G 
  Strapped in a merry-go-round and round in circles
 C                       
  The colors in the sky

Are His promise shining bright
 F G 
  So look for a miracle right around the corner

 C F G 
Ooooooo  Just remember
 C F G 
Ooooooo  Things are gonna change 
 C F G 
Ooooooo  Just remember
 C F G           
  They'll be brighter days


               C F 
You know the stars can't shine without the dark
   Am G 
A fire can't catch without a spark
       C  
Like sunshine mixed with a little bit of rain
  F Am 
Beauty begins right after the pain
     G C 
So count your rainbows
          F 
Oh Oh Oh Oh 
          Am 
Oh Oh Oh Oh
      G C 
So count your rainbows


 C 
  The hands that paint the sky 

And lift the sun to rise 
 F G 
  Will keep on holding you close through every season
 C 
  Mercy and morning light 

Breaks through the darkest night 
 F G 
  So keep believing no matter what you're seeing
 C F G 
Ooooooo Just remember
 C F G 
  He'll bring you brighter days


               C F 
You know the stars can't shine without the dark
   Am G 
A fire can't catch without a spark
       C  
Like sunshine mixed with a little bit of rain
  F Am 
Beauty begins right after the pain
     G                
So count your rainbows
               C F 
You know the stars can't shine without the dark
   Am G 
A fire can't catch without a spark
       C  
Like sunshine mixed with a little bit of rain
  F Am 
Beauty begins right after the pain
     G C 
So count your rainbows


           C 
Like a roller coaster that you can't get off 
        F 
Gotta throw your hands up and make the most
         Am  
Of the twists and the turns that you can't control 
       G 
Just wait at the end there's a pot of gold
         C 
Every color every hue 

Red yellow green blue 
              F 
Without the rain and the pain 

They can't shine through 
      Am 
God made a promise, Oh, don't you know 
       G 
Just trust in the Lord and count your rainbows


               C F 
You know the stars can't shine without the dark
   Am G 
A fire can't catch without a spark
       C  
Like sunshine mixed with a little bit of rain
  F Am 
Beauty begins right after the pain
     G                
So count your rainbows
               C F 
You know the stars can't shine without the dark
   Am G 
A fire can't catch without a spark
       C  
Like sunshine mixed with a little bit of rain
  F Am 
Beauty begins right after the pain
    

1 Girl Nation Chords – 1 Girl Nation

 Hey guys! This tab is for 1 Girl Nation's song "1 Girl Nation". This song is 
pretty fast, so switching chords will be a little difficult, but I know you guys 
will get it! Playing it with the CAPO on 4 will be easier! Hope you guys enjoy!

-----------------------------------------------------------------------------
                       1 GIRL NATION - 1 Girl Nation
-----------------------------------------------------------------------------

Tabbed by: julieeheeart08

Tuning: CAPO on 4
     
Intro: 
       C F Am G C F Am G 
e|-----------------------------------------------------------|
B|-----------------------------------------------------------|
G|-----------------------------------------------------------|  2x
D|-----------------------------------------------------------|
A|---3--3-------0--0-----------3--3--------0--0--------------|
E|---------1--1-------3-3-3----------1--1---------3--3-3-3---|


 C F Am G 
  Hey, There's a girl sitting all alone
 C F Am G  
  Heart broke and I betcha didn't even know
 C F Am G 
  You're there messing with your hair
        C F Am G 
  You ain't got time and you just don't care 


Break:  C F Am G C F Am G 
  What's up with the he said she said 
 C F Am G 
  Drama Drama talking smack on the internet 
 C F Am G 
  Sister, she's just like you
      C F Am G       
 So don't talk trash cause you've been there too


 C F Am G 
  It's time for a little less talk
     C F Am G       
A little less talk cause we all got faults
 C F Am G 
  It's time for a little less talk
     C F Am G C     
A little less talk and a lot more walk


                    C F 
Come together as a One Girl Nation 
             Am G 
Shout it to all creation
          C F 
Jesus is our foundation
 Am G 
We stand strong it's a revolution
 C F Am G 
Oh  Oh  Oh  Oh
  C F 
Let me break it down here's the situation
 Am G C 
  It's time for a One Girl Nation


 C 
1 2 3 4 
 C F Am G 
  Don't mean to be all in your face 
 C F Am G 
  It's in love so hear what I got to say
 C F Am G 
  Take five if you can't say something nice
 C F Am G 
  We're girl strong when we all stand unified 


 C F Am G 
  It's time for a little less talk
     C F Am G       
A little less talk cause we all got faults
 C F Am G 
  It's time for a little less talk
     C F Am G C     
A little less talk and a lot more walk


                    C F 
Come together as a One Girl Nation 
          

Walking In The Sun Chords – Zombies

 Walking In The Sun
(The Zombies)

Chords by Luis Felipe Téllez Campos

Intro:  C F C F C 
We'll be walking in the sun
 C F C     
And share our joy with everyone

     E         
If they only knew
      Am C 
The joy I share with you

 C F C F 
They'd be walking in the sun
(They'd be walking in the sun)

 Am 
You will lie and walk with me
 C 
And we will share our ecstasy
 Am 
Round the world they laugh and say
 F G#     
œLovers ought to be that way

So please try to understand
If I touch and hold your hand

If they only knew
The joy I share with you

They'd be walking in the sun
(They'd be walking in the sun)
(They'd be walking in the sun)
(They'd be walking in the sun)
They'd be walking in the sun





Any suggestion? luis.felipe_tc@live.com