Month: August 2013

Burn Bright Tabs by My Chemical Romance

 Burn Bright- My Chemical Romance

Intro and 1st verse

e|---------------------------------------------------------------------------|
B|--------------14-----------------11----------------------------------------|
G|------11-----------------11-------------------11------13---11--------------|
D|--13------13--------13-------13----------11-------11-----------11----------|
A|---------------------------------------------------------------------------|
E|---------------------------------------------------------------------------|

e|---------------------------------------------------------------------------|
B|--------------11-------------------11--------------------------------------|
G|------11------------------11-----------------------------------------------|
D|--13------13----------12------12-------------------------------------------|
A|---------------------------------------------------------------------------|
E|---------------------------------------------------------------------------|

e|----------------11---------------------------------------------------------|
B|------------14-------------------11----------------------------------------|
G|------11------------------11------------------11------13---11-----13--11---|
D|--13-----13-----------13------13----------11------11-----------11----------|
A|---------------------------------------------------------------------------|
E|---------------------------------------------------------------------------|

e|---------------------------------------------------------------------------|
B|--------------------------------------11-----------------------------------|
G|------11-----13--11-----------11-------------------------------------------|
D|--11------11--------------12------12---------------------------------------|
A|---------------------------------------------------------------------------|
E|---------------------------------------------------------------------------|

e|-----------------11--------------------------------------------------------|
B|-------------14----------11------------------11-----12p11------------------|
G|------11-------------13--------------11-------------------13-11---13-11----|
D|--13-----13----------------------13------13-----------------------------13-|
A|---------------------------------------------------------------------------|
E|---------------------------------------------------------------------------|

e|---------------------------------------------------------------------------|
B|------------11-----------------11------------------------------------------|
G|------11----------------11-------------------------------------------------|
D|---13----13---------12------12---------------------------------------------|
A|---------------------------------------------------------------------------|
E|---------------------------------------------------------------------------|

Pre Chorus


e|---------------------------------------------------------------------------|
B|---------------------------------------------------------------------------|
G|-----8--8--8--8--8--8--8-------8--------8--8--8--8----8--------------------|
D|-----8--8--8--8--8--8--8-----8----------8--8--8--8----8--------------------|
A|-----6--6--6--6--6--6--6---6------------6--6--6--6----6--------------------|
E|---------------------------------------------------------------------------|

Chorus


e|---------------------------------------------------------------------------|
B|---------------------------------------------------------------------------|
G|---------------------------------------------------------------------------|
D|-----9--9--9--9----9--9--9--9-------11-11-11-11---11-11-11-11--------------|
A|-----9--9--9--9----9--9--9--9-------11-11-11-11---11-11-11-11--------------|
E|-----7--7--7--7----7--7--7--7-------9--9--9--9----9--9--9--9---------------|


e|---------------------------------------------

Awake My Soul Tabs by Mumford And Sons V6

 TUNING: EACGce (Capo 2nd fret)


NOTE: THIS IS NOT THE EXACT AMOUNT OF TIMES YOU PLAY EACH PATTERN

How fickle my heart and how woozy my eyes...
[ - - - - - - - - - - - - - - - - - - - - - - - - ]
[ - 0 - - 0 - - 0 - - 0 - - 0 - - 0 - - 0 - - 0 - ]
[ - - - - - - - - - - - - - - - - - - - - - - - - ]
[ 0 - - 0 - - 0 - - 0 - - 0 - - 0 - - 0 - - 0 - - ]
[ - - - - - - - - - - - - - - - - - - - - - - - - ]
[ - - - - - - - - - - - - - - - - - - - - - - - - ]

Lend me your hand and we'll conquer them all...
[ - 0 - -  - - - - - - - - - - 0 - - - - 0 - ]
[ - 0 - - 0 - 0 - 0 - 0 - 0 - -0 - - - - 0 - ]
[ - 0 - - -  - - - - - - - - - 0 - - - - 0 - ]
[ - 0  - - - - - - - - - - - - 0 - - - - 0 - ]
[ - 3 - 3 - 3 - 3 - 3 - 3 - - -5 - - - - 3 - ]
[ - - - - - - - - - - - - - - -3 - - - - - - ]

    Har Har                 Har  Har
[ - - - - - - - - - - - - - - - - - - - - - - - - - - ]
[ - - - 0 - - 0 - - 0 - - 0 - - 0 - - 0 - - 0 - - 0 - ]
[ - - - - - - - - - - - - - - - - - - - - - - - - - - ]
[ - - - - - - - - - - - - - - - - - - - - - - - - - - ]  x2
[ - 2 - - 0 - - 0 - - 0 - - 2 - - 3 - - 3 - - 3 - - - ]
[ - - - - - - - - - - - - - - - - - - - - - - - - - - ]
 

In these bodies we will live, in these bodies we will die...

[ - - - - - - - - - - - - - - - - - - - - - - - - - - - - - ]
[ - - - - - - - - - - - - - - - - - - - - - - - - - - - - - ]
[ - 0 - - - - - - - - - - 0 - - - - - - 2 - - - - - - 0 - - ]
[ - 0 - - - - - - - - - - 0 - - - - - - 0 - - - - - - 0 - - ] x2
[ - 8 - - - - - - - - - - 3 - - - - - - 0 - - - - - - 3 - - ]
[ - - - - - - - - - - - - - - - - - - - - - - - - - - - - - ]

In these bodies we will live, in these bodies we will die...

[ - - - - - - - - - - - - - - - - - - - - - - - - - - - - - - ]
[ - - - - 0 - - - - - - 0 - - - - - - 0 - - - - - 0 - - - - - ]
[ - - - 0 - 0 - - - - 0 - 0 - - - - 2 - 2 - - - 0 - 0 - - - - ]
[ - - 0 - - - - - - 0 - - - - - - 0 - - - - - 0 - - - - - - - ]
[ - 8 - - - - - - 3 - - - - - - 0 - - - - - 3 - - - - - - - - ]
[ - - - - - - - - - - - - - - - - - - - - - - - - - - - - - - ]

[ - - - - - - - - - - - - - - - - - - - - - - | - - 0 - - ]
[ - - - - - - - - - - - - - - - - - - - - - - | - - 0 - - ]
[ - - - - - - 0 - - - - - - - - 0 - - - - - - | - - 0 - - ]
[ - - - - 0 - - - 0 - - - 0 - - - - - - - - - | - - 0 - - ]
[ - - - - - - - - - - - - - - - - - - - - - - | - - 3 - - ]
[ - - 1 - - - - - - - 1 - - - - - - - - - - - | - - - - - ]

[ 0 0 0 0 0 0 0 0 0 0 0 0 0 0 0 ]
[ 0 0 0 0 0 0 0 0 0 0 0 0 0 0 0 ]
[ 0 0 0 0 0 0 0 0 0 0 0 0 0 0 0 ]
[ 0 0 0 0 0 0 0 0 0 0 0 0 0 0 0 ]
[ 3 3 3 3 3 3 3 3 3 3 3 3 3 3 3 ]
[ 0 0 0 0 0 0 0 0 0 0 0 0 0 0 0 ]

[ 0 0 0 0 0 0 0 0 0 0 0 0 0 0 0 ]
[ 0 0 0 0 0 0 0 0 0 0 0 0 0 0 0 ]
[ 0 0 0 0 0 0 0 0 0 0 0 0 0 0 0 ]
[ 0 0 0 0 0 0 0 0 0 0 0 0 0 0 0 ] x2
[ 8 8 8 8 8 8 8 8 3 3 3 3 3 3 3 ]
[ 5 5 5 5 5 5 5 5 0 0 0 0 0 0 0 ]

[ 0 0 0 0 0 0   0   0   0   0   0   0 ]
[ 0 0 0 0 0 0   0   0   0   0   0   0 ]
[ 0 0 0 0 0 0   0   0   0   0   0   0 ]
[ 0 0 0 0 0 0   0   0   0   0   0   0 ]
[ 8 8 8 8 8 8   10  12  12  12  12  12]
[ 5 5 5 5 5 5   7   9   9   9   9   9 ]

[ 0 0 0 0 ]
[ 0 0 0 0 ]
[ 0 0 0 0 ]
[ 0 0 0 0 ]
[ 8 7 5 2 ]
[ 4 3 2 0 ]

[ 0 0 0 0 0 0 0 0 ]
[ 0 0 0 0 0 0 0 0 ]
[ 0 0 0 0 0 0 0 0 ]
[ 0 0 0 0 0 0 0 0 ]
[ 8 7 5 2 3 3 3 3 ]
[ 4 3 2 0 0 0 0 0 ]

Awake my soul...

[ 0 0 0 0 0 0 0 0 0 0 0 0 0 0 0 ]
[ 0 0 0 0 0 0 0 0 0 0 0 0 0 0 0 ]
[ 0 0 0 0 0 0 0 0 0 0 0 0 0 0 0 ]
[ 0 0 0 0 0 0 0 0 0 0 0 0 0 0 0 ] x2
[ 8 8 8 8 8 8 8 8 3 3 3 3 3 3 3 ]
[ 5 5 5 5 5 5 5 5 0 0 0 0 0 0 0 ]

Awake         my  soul...

[ 0 0 0 0 0 0   0   0   0   0   0   0 ]
[ 0 0 0 0 0 0   0   0   0   0   0   0 ]
[ 0 0 0 0 0 0   0   0   0   0   0   0 ]
[ 0 0 0 0 0 0   0   0   0   0   0   0 ]
[ 8 8 8 8 8 8   10  12  12  12  12  12]
[ 5 5 5 5 5 5   7   9   9   9   9   9 ]

#1 | For you were made to 

      [ 0 0 0 0 ]
      [ 0 0 0 0 ]
      [ 0 0 0 0 ]
      [ 0 0 0 0 ] 
      [ 8 7 5 2 ]
 

Goodnight And Goodbye Chords – Mree

 C Em7 
Oh how I love how the sun lays upon us
 F C G 
Staining the inches of skin.
 C Em7 
Oh says the clouds as they whisper above us
 F C G 
Oh what a life it's been

 Am Em G  
And all of the lies we've lied
 Am Em C G 
And all of the time thats timed our lives
 Am Em C G F 
How do we know whats wrong or right this time

 Am Em F C G 
When all of the trees falling down to the ground and
 Am Em F C G 
Fall to your knees like a child that is crawling
 Am Em C G F  
All the while we never stop to smile

 C Em7 
Oh how she loves how the spring comes to greet her
 F C G 
with lands overflowing with green
 C Em7 
All of the drops pulling down till they meet us
 F C G 
latching themselves onto me

 Am Em G 
We may not have missed this time
 Am Em G 
But then when they all run dry
         Am Em C G F 
And that beautiful light that lights our eyes is gone
               G 
What have we done?

 Am Em F C G 
When all of the trees falling down to the ground and
 Am Em F C G 
Fall to your knees like a child that is crawling
 Am Em C G F  
All the while we never stop to smile
         C Em 
Do we even care?

 Am Em F C G 
When all of the tears from her eyes have collected
 Am Em F C G 
Form in the sky and leave us unprotected
 Am Em C G F  
I can't fathom why we say goodnight
                         C 
when we mean to say goodbye

Sam Chords – Mark Wirtz

 Sam - Mark Wirtz & Keith West

Album - A Teenage Opera

Capo 1st Fret

Intro: *I'm not too sure the exact chords for the intro but it sounds okay if you vamp on the A*

           [0.27 secs]  A , A7sus4/A , A7sus4  [repeat into verse]

Verse 1:

 A A7sus4 A 
Sam had a nice profession,
( A )               A7sus4 
Well it was really more an obsession,
    A A7sus4 
He didn't have a single possession,
    A A7sus4 Bm7 
Just affection for a steam machine,
            Dm7 E        
Its simply Green-- her name is Glory,

Verse 2:

 A A7sus4 A 
The village folks they often wonder,
( A )                   A7sus4        
Where Glory gets her fire and thunder,
 A A7sus4 A 
Magic things Sam must conjure,
               Bm7 
Museum on the Rails--
                 Dm7 A 
A legend of Old Tales--Glory

[Train fx] 

Cue: ("Everybody on the train")

 Bm7 E A 
They climb aboard, wipe their feet,
( A )                         F#m7 
Would you kindly take your seats,
 Bm7 E 
Sam pulls a cord,
       A A7sus4 A 
And a whistle is absorbed,
 Bm7 E 
Sam calls to ev'ryone,
             Amaj7 F#m7              
"Let's have fun--This could be our last run!",
    Dm7 
He didn't know how right he was,
   E A 
A shock for him was in the post--now!

[Orchestral Instrumental]

Verse 3:

 A A7sus4 A 
A letter headed Railway Company,
( A )                   A7sus4 
Found its way to his house on Monday,
 A A7sus4 
Read: 'Your route is uneconomical,
 A A7sus4 Bm7 
Very sorry, we got to be logical,
              Dm7 
And when the month ends,
 E 
Glory is redundant'.

Verse 4:

 A A7sus4 A 
Then a strange sound in the night,
( A )               A7sus4 
Made the people wake with fright,
 A A7sus4 
A Green Machine with a yellow light,
      A A7sus4 
With Sam on top--steams out of sight,
 Bm7 Dm7 A 
Leaving behind puzzled minds

Instrumental:  Bm7 ,,,/ E ,,,/ Amaj7 ,,,/ F#m7 ,,,/
               Bm7 ,,,/ E ,,,/ A , A7sus4/A ,,,/
               Bm7 ,,,/ E ,,,/ Amaj7 ,,,/ F#m7 ,,,/
               Dm7 ,,,/ E ,,,/ A  [hold]

 A A7sus4 
Dear old Sam we miss you so,
    A A7sus4 
We wish you would come back,
 A A7sus4 
All we want for Christmas,
        A A7sus4 
Is old Sam in Santa's sack,  [Repeat 3 times]

[Key Change]

Fade out on A# and A#7sus4

http://www.markwirtz.com

Roller Coaster Chords – Luke Bryan V2

 Roller Coaster  by Luke Bryan

~Capo 1~

Intro:  G C Am G   X2


           G C Am G 
She had a cross around her neck, and a flower in her hand
         C Am G C 
That I picked from the side of Thomas Drive on our way to the sand
             G C Am G         
We found an old wooden chair still warm from the sun
            C Am G C 
Pushed it back, gave me a kiss with Bacardi on her lips and I was done

Chorus:
         G C Bm G 
And we spent that week wide open, upside down beside the ocean
           C G Am C 
I didn't know where it was goin' just tryin' to keep my heart on the tracks
              G C Bm G 
I should've known that kind of feelin' would last longer than that weekend
         C G Am C  
Blown away and barely breathin' Sunday came and it was over
 C Am C G 
Now she's got me twisted, like an old beach roller coaster


 G C Am G 
The rest of those days, turned into long, crazy nights
          C Am            
When the music got loud we’d sneak away from the crowd
            G C 
Under the boardwalk lights 
           G C Bm 
And with all the things we said, what I just can't get past
    C Am  
Is the way we let it end, now I’m wonderin’ where she is
           G C 
Knowin’ I can't get that goodbye back


         G C Bm G 
And we spent that week wide open, upside down beside the ocean
           C G Am C 
I didn't know where it was goin' just tryin' to keep my heart on the tracks
              G C Bm G 
I should've known that kind of feelin' would last longer than that weekend
         C G Am C  
Blown away and barely breathin' Sunday came and it was over
 C Am C G 
Now she's got me twisted, like an old beach roller coaster


 G C Am 
She's like a song playin' over and over
       G C Am 
In my mind, where I still hold her
           G C Am 
I had the chance and I should've told her

 
         G C Bm G 
When we spent that week wide open, upside down beside the ocean
             C G Am C 
I should’ve known where it was goin' still tryin' to keep my heart on the tracks
                  G C Bm G 
And I should've known that kind of feelin' would last longer than that weekend
         C G Am C  
Blown away and barely breathin' when Sunday came and it was over
 C Am C Am                             
Now she's got me twisted, yeah I’m still twisted, 
         C G 
Like an old beach roller coaster 
          C G 
Like an old beach roller coaster.

Play It Again Chords – Luke Bryan V2

 Play It Again
Written by Dallas Davidson & Ashley Gorley
Recorded by Luke Bryan

(Capo on 4)

Intro.:  |( C )( G )|( D/A ) | x 2ai

She was ( C )sittin' all alone over ( G )on the tailgate, ( D/A )tan legs swingin' by a 
Georgia plateusa
I was ( C )lookin' for her boyfriend, ( G )thinkin', no way she ain't ( D/A )got one
Soon as ( C )I sat down I was ( G )fallin' in love, tryin' to ( D )pour a little sugar in her 
( Em )Dixie ( D )cup
Talkin' ( C )over the speakers in the ( G )back of that truck, she ( D )jumped up and cut me off

(Chorus)
She was like, ( C )oh my God, ( G )this is my song, I've been ( D )listenin' to the radio 
( Em )all night ( D )long
( C )Sittin' 'round waitin' for ( G )it to come on and ( D )here it is
She was like, ( C )come here boy, ( G )I wanna dance, 'fore ( D )I said a word, she was 
( Em )takin' my ( D )hand
( C )Spinnin' me around 'til ( G )it faded out, and ( D )she gave me a kiss
And she said, ( C )play it again, ( G )play it again, ( D )play it again
And I said, ( C )play it again, ( G )play it again, ( D )play it again

I'd have ( C )gave that DJ ( G )my last dime, ( D )if he would have played it just one more time
But a ( C )little while later, we were ( G )sittin' in the drive in ( D )my truck
Before I ( C )walked her to the door, I was ( G )scannin' like a fool ( D )AM, FM, ( Em )XM ( D )too
But I ( C )stopped real quick when I ( G )heard that groove, ( D )man, you should have seen 
her light up

(Chorus)
She was like, ( C )oh my God, ( G )this is my song, we've been ( D )listenin' to the radio 
( Em )all night ( D )long
( C )I can't believe it ( G )came back on, but ( D )here it is
She was like, ( C )come here boy, ( G )I wanna dance, 'fore ( D )I said a word, she was 
( Em )takin' my ( D )hand
( C )Spinnin' in the headlights ( G )she gave me a ( D )goodnight kiss
And I said, ( C )play it again, ( G )play it again, ( D )play it again
And she said, ( C )play it again, ( G )play it again, ( D )play it again

(Bridge)
The next ( C )Friday ( G )night we were ( D )sittin' out under the stars
You should have ( C )seen her ( G )smile when I ( D )brought out my guitar

(Chorus)
She was like, ( C )oh my God, ( G )this is my song, I've been ( D )listenin' to the radio 
( Em )all night ( D )long
( C )Sittin' 'round waitin' for ( G )it to come on and ( D )here it is
She was like, ( C )come here boy, ( G )I wanna dance, 'fore ( D )I said a word, she was 
( Em )takin' my ( D )hand
( C )Spinnin' in the headlights ( G )she gave me a ( D )goodnight kiss
And she said, ( C )play it again, ( G )play it again, ( D )play it again
And I said, ( C )play it again, ( 

Out Like That Chords – Luke Bryan

 Out Like That
Luke Bryan
"Crash My Party" (2013)

Capo on 4

Intro - 

 Em - C - G - D 

Verse 1:

 Em C G D              
You got me all caught up
The way you look tonight
We could head downtownn
Or I can turn around, up here, on the right
Ah, just look at this sky 
The rain aint far from fallin down 
And I wanna get to know you
Better than I know this little town, yes I do


 Em C 
I wanna feel your heart go tic-toc
 G D 
While the rain from your hair drip-drops 
 Em D 
Parked out in the middle of nowhere

 C D Em D 
Theres a place I can get up against your lips 
Thats where I gotta be with you lookin' like this 
Lets get lost somewhere
Anywhere we aint gotta hold back
If were gonna go out, baby
Let's go out like that


Verse 2:

 Em C G D 
And Ill grab your door
You can take my hand
Hop up on my shoulders and Ill walk us over
Where we can dance 
And Ill leave the headlights on 
So, I can see your face 
Spin you round in the mud 
Yeah, soak it all up, baby 
Whatcha say, what cha say

Pre-Chorus
 Em C 
I wanna feel your heart go tic-toc
 G D 
While the rain from your hair drip-drops 
 Em D 
Girl Im talkin country kinda crazy, yeah

Chorus
 C D Em D 
Out where I can get up against your lips 
Thats where I gotta be with you lookin like this 
Lets get lost somewhere
Anywhere we aint gotta hold back
If were gonna go out, baby
Let's go out like that

 Em C 
I wanna feel your heart go tic-toc
 G D 
While the rain from your hair drip-drops 
 Em D 
Gettin country kinda crazy in the middle of nowhere

Chorus:
 C D Em D 
Out where I can get up against your lips 
Thats where I gotta be with you lookin like this 
Lets get lost somewhere
Anywhere we aint gotta hold back
  C D 
If were gonna go out, baby
Let's go out, baby

 C D   
If were gonna go out baby
Lets go out like that
 C D 
Yeah girl, that's where its at
Lets go out like that

Intro to end

I See You Tabs by Luke Bryan

 Luke Bryan,  "I See You"

This song is all straight power chords:
    D#m  B  F#  C#  A#m
e|---11--7--2---9----6---|
B|---11--7--2---9----6---|
G|---11--8--3---10---6---|
D|---13--9--4---11---8---|
A|---13--9--4---11---8---|
E|---11--7--2---9----6---|


(intro)
e|------------------------------------------------------------|
B|-s4---2---2--------------------s4---2---2-------------------|
G|----3---3---3-1-1-1-3-1-----------3---3---3-1-1-1-3-1-------|
D|------------------------4-1-5-------------------------4-1-5-|
A|------------------------------------------------------------|
E|------------------------------------------------------------|

2x
D#m  B  F#  C#  


(verse)
D#m               B
  Roll in the bar,  me and my crew
F#                 C#
  Their little plan to get me over you 
D#m
  They're hookin’ me up, yeah
B                 F#
  Buyin’ me drinks with a thousand girls 
C#
  There's just one thing


(chorus)
C# D#m                                B
      I can't go anywhere, I can't do anything
            F#                        C#
No, I can't close my eyes without you in my dreams
                D#m                     B
You won't leave me alone, even though I know you're gone
        F#                C#
I look around for someone new, but I see you
B
 Jumpin’ up there with the band
C#
 Takin’ me by the hand
D#m
 Hey boy, come dance with me
A#m                 B
 Stuck like a melody in my head in the bed of my truck
       C#                                        D#m  B  F#  C#,
By the light of the midnight moon baby, I see you


(verse)
D#m                       B
  Don't know what you did,  but you done it good
F#                       C# 
  You don't know how bad  that I wish I could
D#m                        B
  Delete you from my phone,  find a girl and take her home
F#                           C#
  But there's just one thing wrong


(chorus)
C# D#m                                B
      I can't go anywhere, I can't do anything
            F#                        C#
No, I can't close my eyes without you in my dreams
                D#m                     B
You won't leave me alone, even though I know you're gone
        F#                C#
I look around for someone new, but I see you
B
 Jumpin’ up there with the band
C#
 Takin’ me by the hand
D#m
 Hey boy, come dance with me
A#m                 B
 Stuck like a melody in my head in the bed of my truck
       C#
By the light of the midnight moon, baby, I see you


(instrumental-bridge)
2x
D#m  B  F#  C#

D#m         B
  Your lips,  your eyes
C#
Girl, since you told me goodbye


(chorus-out)
(acoustic) D#m                  B
I can't go anywhere, I can't do anything
            F#                        C#
No, I can't close my eyes without you in my dreams
(electric)      D#m                     B
You won't leave me alone, even though I know you're gone
        F#                C#
I look around for someone new, but I see you
B
 Jumpin’ up there with the band
C#
 Takin’ me by the hand
D#m
 Hey boy, come dance with me
A#m                  B
 Stuck like a melody in my head in the bed of my truck
       C#                                        D#m  B  F#  C#,
By the light of the midnight moon baby, I see you             (oh-oh-oh-ohh)
                D#m  B  F#  C#
Baby, I see you              baby, I see you

I See You Chords – Luke Bryan

 I See You
Written by Luke Bryan, Ashley Gorley & Luke Laird
Recorded by Luke Bryan

(Capo on 4)

Intro.:  |( Bm )( G )|( D )( A )| x 2

(Verse 1)
( Bm ) Roll in the bar, ( G ) me and my crew
( D ) Their little plan ( A ) to get me over you
( Bm ) They're hookin' me up, yeah, ( G ) buyin' me drinks
( D ) With a thousand girls, ( A ) there's just one thing

(Chorus),o
I can't go ( Bm )anywhere, I can't do ( G )anythingusa
No, I can't ( D )close my eyes without you ( A )in my dreams
You won't leave ( Bm )me alone, even though I ( G )know you're gone
I look a-( D )round for someone ( A )new, but I see you
( G ) Jumpin' up there with the band, ( A ) takin' me by the hand
( Bm ) Hey boy, come dance with me, ( F# ) stuck like a melody
( G ) In my head, in the bed of my truck
By the ( A )light of the midnight moon, baby, I see you

Solo:  |( Bm )( G )|( D )( A )|

(Verse 2)
( Bm ) Don't know what you did, ( G ) but you done it good
( D ) You don't know how bad ( A ) that I wish I could
( Bm ) Delete you from my phone, ( G ) find a girl and take her home
( D ) But there's just one thing ( A )wrong

(Chorus),o
I can't go ( Bm )anywhere, I can't do ( G )anythingusa
No, I can't ( D )close my eyes without you ( A )in my dreams
You won't leave ( Bm )me alone, even though I ( G )know you're gone
I look a-( D )round for someone ( A )new, but I see you
( G ) Jumpin' up there with the band, ( A ) takin' me by the hand
( Bm ) Hey boy, come dance with me, ( F# ) stuck like a melody
( G ) In my head, in the bed of my truck
By the ( A )light of the midnight moon, baby, I see you

Solo:  |( Bm )( G )|( D )( A/C# )|( Bm )( G )|( D )( A )|

(Bridge)
( Bm ) You lips, ( G ) your eyes, ( A )girl, since you told me goodbye

(Chorus),o
I can't go ( Bm )anywhere, I can't do ( G )anythingusa
No, I can't ( D )close my eyes without you ( A )in my dreams
You won't leave ( Bm )me alone, even though I ( G )know you're gone
I look a-( D )round for someone ( A )new, but I see you
( G ) Jumpin' up there with the band, ( A ) takin' me by the hand
( Bm ) Hey boy, come dance with me, ( F# ) stuck like a melody
( G ) In my head, in the bed of my truck
By the ( A )light of the midnight moon, baby, I see you

Outro.:  |( Bm )( G )|( D )( A ) Baby, I see |( Bm )you, ( G )|( D )( A ) baby, I see |( Bm )you ----- 

Goodbye Girl Chords – Luke Bryan V2

 Luke Bryan,  "Goodbye Girl"


(intro)
 E 

(verse)
 E 
Yeah, I know that color on your lips too well. 
 E A  
I saw you blowing kisses down the wishing well again. 
 E 
When I say I love you, just just say "I know."
 E A  
You put your arms around me, but it's all for show, and then



(chorus)
           F#m G#m F#m  
There you go wrecking my whole world. 
                  G#m F#m E 
All fixed up, my goodbye girl. 


(verse)
 E 
You scatter in the wind just like a dandelion. 
 E A 
Reminding me again that you ain't ever mine for long. 
 E 
But I know it's gonna happen when the moon is right, 
 E A 
you'll show up at my door and pull me in just like a song. 


(chorus)
           F#m G#m F#m  
There you go wrecking my whole world. 
                          G#m F#m C#m 
One more hello, one more goodbye girl. 


(bridge)
 C#m G#m 
It might seem crazy to keep loving you this way, 
 F#m A E 
  but I'll never bring myself to say goodbye, girl. 

(instrumental)
 E G#m F#m A 


(chorus-out)
 E 
The sun is gonna make it's way around again, 
 E 
but the rain is always waiting just around the bend. 
(no chord)     F#m G#m F#m 
And there you go, wrecking my whole world. 
                          G#m F#m 
One more hello, one more goodbye, girl. 
                  G#m F#m E  
All fixed up, my goodbye girl, goodbye girl,  goodbye girl.

Blood Brothers Chords – Luke Bryan V3

 "Blood Brothers"

No Capo/Capo 4

 Am 
We were as young as we were dumb
      Em 
When we piled in a ol' pile of junk
         Gai
It was one for all, and all for one
         Dusa
A bunch of outlaws without a gun
        Am 
Shootin' bad booze outta dixie cups
        Em 
Chasin' every girl that wasn't fast enough
         Gai
No matter how bad the break or how bad the luck,o
      Dusa
Or how bad the day you still had us


         Am Em 
Blood brothers closer than your next to kin
                                    Gai
Thick as these and the best of friends
                        Dusa
Take a bullet for each other

Yea brothers a light that don't come cheap
You fight you cry you lie you bleed
And you lean on one another
Blood brothers

I got a scar on my cheek from a bar room brawl
Wasn't meant for me but I took the fall
It's a cowboy code it's an unwrote law
When you mess with one you gotta take us all.

Blood brother's closer than your next to kin
Thick as these and the best of friends
Take a bullet for each other

Yea brothers a light that don't come cheap
You fight, you cry, you lie, you bleed
And you lean on one another
Blood brothers

Time can fly on by
Everything can change
Until the day we die
We'll always remain
We'll remain
Yea yea yea

Blood brothers closer than you next of kin
Thick as these and the best of friends
Take a bullet for each other

Yea brothers a light that don't come cheap
You fight, you cry, you lie, you bleed
And you lean on one another
Blood brothers

Yea yea
Oh oh
Blood brothers

Beer In The Headlights Chords – Luke Bryan V2

 **Standard Tuning or Half-Step Down with Capo on 1st Fret**)

Intro Chords:  G  -  Dm  ,o(pause)  G Bm A  x2

Verse:  G  -  Dm  ,o-  Em  -  A G  -  Dm 
Honey suckle in the air, breeze blowing through your hair
 Em  -  A 
Hundred stars hanging high, under your still tideai
 G  -  Dm  ,o
Up in every move you make, baby I'm your DJusa
Em - A - (* G First Verse Only)
Your my favorite song, won't you let me sing-a-long 

Chorus:  G  -  Bm  -  A G  -  Bm  -  A 
Sittin' right here, out here in the middle of nowhere
 G  -  Bm  -  A 
I swear I've never seen, ever seen nothing like you anywhere
 G  -  Bm  -  A 
I got the key turned back, windows down, I'm turning it up and your Spinnin' around 
 G  -  Bm  -  A 
takin' a sip, swingin' your hips, girl your looking so Fine 
(pause)                           G  -  Bm  -  A 
with your beer in the headlights

Verse:  G  -  Dm  ,o-  Em  -  A 

Heart beating like a drum, call me the lucky one
Shining these Hi-Beams on you baby, boots stiring up the dirt
Cottonfield concert, you got the beautiful, I got the cooler full

Chorus:  G  -  Bm  -  A 

Sittin' right here, out here in the middle of nowhere
I swear I've never seen, ever seen nothing like you anywhere
I got the key turned back, windows down, I'm turning it up and your
Spinnin' around, takin' a sip, swingin' your hips, girl your looking so
Fine, with your beer in the headlights

 G  -  Bm  -  A 

With your beer in the headlights,

Bridge:  G  -  Dm  ,o-  Em  -  A 

Sittin' right here, out here in the middle of nowhere, nowhere
I swear I've never seen, ever seen nothing like you anywhere
Ohhh ohh ohhh

 G  -  Bm  -  A 

I got the key turned back, windows down, I'm turning it up and your
Spinnin' around, takin' a sip, swingin' your hips,
Girl your looking so fine, with your beer in the headlights

 G  -  Bm  -  A 

With your beer in the headlights
With your beer in the headlights
With your beer in the headlights 

Ill Wait Chords – Jonathan Dimmel

 No capo
Chords used:  C D Am G F 

Intro:
 C D C Am G 

Verse 1:
 C Am G C 
On the beating road, far from all I've known, not sure what's in store.
 C Am G C 
Faces I once knew, pictures I once saw, colours fade to grey.


Chorus:
          F C 
But I'll wait for you, I'll wait for you.
      F C G C Am G C Am G 
I'll wait for you, I'll wait for you.

Verse 2:
 C Am G C 
I remember when you first took my hand, life seemed to simple then.
 C Am G C 
We could conquer this thing that others miss, but our love began to age.


Chorus:
          F C 
But I'll wait for you, I'll wait for you.
      F C G 
I'll wait for you, I'll wait.
 F C 
I'll wait for you, I'll wait for you.
      F G C Am G C Am G C 
I'll wait for you, as our love fades away.

Hanga Chords – Jammers Of Yahweh

 Verse 1: 
 E A 
Ginawa Mong anak
 C#m B 
Hindi man karapat-dapat

minahal Mo ng tunay

Sinakripisyo Mo ang buhay Mo

Upang ako ay magkaron... ng buhay na walang hanggan..


CHORUS:

Kahanga-hanga Ka oh aming Dios na Dakila

Kahanga-hanga Ka at ang Iyong mga gawa


Verse 2: 

Dumanak ang Yong dugo

Upang ang sumpa ng kasalanan ko

ay mahugasan Mo

Tinanggap lahat ng pait

upang ako ay makalaya..

sa anumang klase ng sakit..


Chorus:

Kahanga-hanga Ka Oh aming Dios na dakila

Kahanga- hanga Ka at ang Iyong mga gawa

(3x)


Going Down Tabs by Guns N Roses

 I spent quite a bit of time on this so I think its pretty close to completely accurate.
I did not tab out, but did put in a few of the lead licks.  If you have any questions,
concerns, suggestions, or want some tips on how to learn the song, send me an e-mail at 
omarbradley4@gmail.com

Tuning: Standard
Key: F#
Tempo: 64 bmp first verse and solo, 128 bpm chorus and rest of song

0:01-0:19

B  B  F# F#
G# G# G# F#
C# C#


0:20-0:58

B B F# F#

G# F# G# F#

C# C#

B B F# F#

G# F# G# B

F# C#


0:59-1:07
To those of you who noticed something weird going on during this part: Stig says this
part is two measures of 4, a measure of 2, two more measures of 4, and then another
measure of 2

D# C# B A# B

D# C# B A# B

1:08-1:12
D#    C#   B


1:13-1:36
--------------------------------------------------------------------|
--------------------------------------------------------------------|
----------------x-6-6-(6)-6-7-8------------4--4-x-x-----x-x---------|
--4-4--x-x--4-4-x-6-6-(6)-6-7-8------------4--4-x-x-----x-x---------|
--4-4--x-x--4-4-x-4-4-(4)-4-5-6------------2--2-x-x--2--x-x---------|
--2-2--x-x--2-2------------------4b5-4b5r2------------------5v------|

--------------------------------------------------------------------|
----------------------------------------------------0---------------|
----------------x-6-6-(6)-6-7-8------------4--4-x-x---3-2v----------|
--4-4--x-x--4-4-x-6-6-(6)-6-7-8------------4--4-x-x-----------------|
--4-4--x-x--4-4-x-4-4-(4)-4-5-6------------2--2-x-x-----------------|
--2-2--x-x--2-2------------------4b5-4b5r2--------------------------|


--------------------------------------------------------------------|
-------------------------------------------4v-4v-2v-4-4v-2h4p2------|
----------------x-6-6-(6)-6-7-8------------4v-4v-2v-4-4v-2h4p2------|
--4-4--x-x--4-4-x-6-6-(6)-6-7-8--------------------------------4----|
--4-4--x-x--4-4-x-4-4-(4)-4-5-6-------------------------------------|
--2-2--x-x--2-2------------------4b5--4-4---------------------------|


1:40 - 2:17

B B F# F#

G# F# G# F#

C# C#

B B F# F#

G# F# G# F#


2:17 - 2:28
Same deal as before, rhythmically

D# C# B A# B

D# C# B A# B


2:28-2:31
D#    C#   B


2:32 - 3:11
--------------------------------------------------------------------|
--------------------------------------------------------------------|
----------------x-6-6-(6)-6-7-8------------4--4-x-x-----x-x---------|
--4-4--x-x--4-4-x-6-6-(6)-6-7-8------------4--4-x-x-----x-x---------|
--4-4--x-x--4-4-x-4-4-(4)-4-5-6------------2--2-x-x--2--x-x---------|
--2-2--x-x--2-2------------------4b5-4b5r2------------------5v------|


--------------------------------------------------------------------|
----------------------------------------------------0---------------|
----------------x-6-6-(6)-6-7-8------------4--4-x-x---3-2v----------|
--4-4--x-x--4-4-x-6-6-(6)-6-7-8------------4--4-x-x-----------------|
--4-4--x-x--4-4-x-4-4-(4)-4-5-6------------2--2-x-x-----------------|
--2-2--x-x--2-2------------------4b5-4b5r2--------------------------|


-------------------------------------------------5------------------|
-------------------------------------------------4b-2-4p2-x-x-4-2---|
----------------x-6-6-(6)-6-7-8---------------------2-4p2-x-x-4-2---|
--4-4--x-x--4-4-x-6-6-(6)-6-7-8--6-6-6-6-6-6-6-6------------------4-|
--4-4--x-x--4-4-x-4-4-(4)-4-5-6--6-6-6-6-6-6-6-6--------------------|
--2-2--x-x--2-2------------------4-4-4-4-4-4-4-4--------------------|


--------------------------------------------------------------------|
----------------------------------------------4p2-x-x-2-x-x-2-------|
----------------x-6-6-(6)-6-7-8------------4--4p2-x-x-2-x-x-2-------|
--4-4--x-x--4-4-x-6-6-(6)-6-7-8------------4------------------------|
--4-4--x-x--4-4-x-4-4-(4)-4-5-6------------2------------------------|
--2-2--x-x--2-2------------------4b5-4b5r2---------

Oh Sweet Lorraine Chords – Fred Stobaugh

 G C Am D G C 
Oh Sweet Lorraine
   Am 
I wish we could do
     D 
The good times
          G  
All over again

    G C 
Oh Sweet Lorraine
 Am D 
Life only goes around Once
           G 
But never again

    G C 
Oh Sweet Lorraine
   Am 
I wish we could do
     D 
The good times
          G  
All over again
                C Am D 
The good times, the good times, the good times
           G 
All over again
                C Am D 
The good times, the good times, the good times
           D 
All over again

         Am C 
But the memories will always 
linger on
    D 
Oh sweet Lorraine no I don't wanna move on
         Am C 
Oh, the memories will Always linger on
    D 
Oh sweet Lorraine that's why I wrote you this song

    G C 
Oh Sweet Lorraine
 Am D 
Life only goes around Once
           G 
But never again

    G C 
Oh Sweet Lorraine
   Am 
I wish we could do
     D 
The good times
          G  
All over again
                C Am D 
The good times, the good times, the good times
           G 
All over again

House Carpenter Chords – Faun Fables

 intro:  Cm  (fast travis picking during the whole song)

 Cm 
Well met, well met my own true love
well met, well met cried he.
I've just returned from the salt salt sea
and it's all for the love of thee.

 Cm A#m Cm 
Come in, come in my own true love,
 Cm A#m Cm 
and have a seat with me,
     Cm A#m        
for it's been three quarters of a long, long year
       Cm A#m Cm 
since together we have been.

 Cm 
I can't come in and I can't sit down
I haven't but a moment's time.
But I hear you're married to the house carpenter
so your love will never be mine.

 Cm A#m Cm 
And I could've married with the king's daughter there,
             A#m Cm 
so free she was with me.
                       A#m        
But I forsook all the crowns and gold
          Cm A#m Cm     
and it's all for the love of thee.

 Cm A#m Cm 
If you would have married with the king's daughter there,
              A#m Cm 
I'm sure you are to blame.
                                  A#m 
And it's now I've married to the house carpenter
     Cm A#m Cm    
and I'm sure he's a fine young man.

 Cm 
Well will you forsake your house carpenter
and come away with me?
I'll take you down to where the grass grows green,
down by the sweet dundee.

 Cm A#m Cm 
(So she picked up her tine wee babe
            A#m Cm 
and kisses gave it three,
                           A#m            
saying stay right here my sweet, sweet dear
     Cm A#m Cm 
and keep your father company.

 Cm A#m Cm 
Well they hadn't been on ship but about 2 weeks,
             A#m Cm  
I'm sure it was not 3,
 Cm ...
when she espied his cloven foot
and began to weep most bitterly.)

 Cm A#m Cm 
Are you weeping for your house and land,
            A#m Cm 
or are you weeping for your store,
                             A#m          
or are you weeping for the house carpenter
       Cm A#m Cm 
whose face you'll never see no more?

 Cm A#m Cm 
No I'm not weeping for my house and land,
         A#m Cm 
I'm not weeping for my store,
 Cm 
it's now I'm weeping for my soul, so dear,
whose purity I'll never see no more.
                         
(Well they hadn't been on ship for about 3 weeks,
I'm sure it was not 4,
when he stomped his foot and down she sank,
and sank to arise no more.)

 Cm A#m Cm  
Well met, well met my own true love love,
           A#m Cm 
well met, well met cried he.
                           A#m Cm 
I've just returned to the salt salt sea
and it's all for the love of thee.

Kettles Of Doom Tabs by Fatso Jetson

 Kettles of Doom By Fatso Jetson.
This song is from the album "Stinky Little Gods".
I've tabbed this the way I play it.
Listen to the song to understand the rhythm and timing of the notes used.
This is played in standard tuning.

http://www.fatsojetson.com/fr_home.cfm


e|------------------------------------------------------|
B|----------------12----12v\-------------12----12v\-----|
G|-5b---5b----/13----13--------5b----/13----13----------|
D|-5b---5b---------------------5b-----------------------|
A|-3b---3b---------------------3b-----------------------|
E|------------------------------------------------------|

e|------------------------------------------------------|
B|-----------12----12v\-------------12----12v\----------|
G|-5b----/13----13--------5b----/13----13---------------| 
D|-5b---------------------5b----------------------------|
A|-3b---------------------3b----------------------------|
E|------------------------------------------------------|

e|------------------------------------------------------|
B|------------------------------------------------------|
G|------------------------------------------------------|
D|-5p3------------------5p3-----------------------------| 
A|---------4v---2p0-------------4v---2p0----------------|
E|-----5-3----0-----3p0-----5-3----0-----3p0------------|

e|------------------------------------------------------|
B|------------------------------------------------------|
G|------------------------------------------------------|
D|-5p3------------------5p3-----------------------------| 
A|---------4v---2p0-------------4v---2p0----------------|
E|-----5-3----0-----3p0-----5-3----0-----3p0------------|

e|------------------------------------------------------|
B|------------------------------------------------------|
G|------------------------------------------------------|
D|-5p3------------------5p3-----------------------------| 
A|---------4v---2p0-------------4v---2p0----------------|
E|-----5-3----0-----3p0-----5-3----0-----3p0------------|

e|------------------------------------------------------|
B|------------------------------------------------------|
G|------------------------------------------------------|
D|-5p3------------------5p3-----------------------------| 
A|---------4v---2p0-------------4v---2p0----------------|
E|-----5-3----0-----3p0-----5-3----0-----3p0------------|

e|------------------------------------------------------|
B|-------7-5v----------------7-5v-----------------------|
G|-------7-5v----------------7-5v-----------------------|
D|------------------------------------------------------| 
A|------------2p0-----------------2p0-------------------|
E|-3-4-5----------3p0--3-4-5----------3p0---------------|

e|------------------------------------------------------|
B|-------7-5v----------------7-5v-----------------------|
G|-------7-5v----------------7-5v-----------------------|
D|------------------------------------------------------| 
A|------------2p0-----------------2p0-------------------|
E|-3-4-5----------3p0--3-4-5----------3p0---------------|

e|--------------------------------3-3-------------------|
B|--------------------------------2-2-------------------|
G|------------------------------------------------------|
D|-5p3------------------5p3-----------------------------| 
A|---------4v---2p0-------------4-----------------------|
E|-----5-3----0-----3p0-----5-3-------------------------|

e|--------------------------------3-3-------------------|
B|--------------------------------2-2-------------------|
G|------------------------------------------------------|
D|-5p3------------------5p3-----------------------------| 
A|---------4v---2p0-------------4-----------------------|
E|-----5-3----0-----3p0-----5-3-------------------------|

e|--------------------------------3-3-------------------|
B|--------------------------------2-2-------------------|
G|------------------------

All The Question Marks Are Gone Chords – Diy

 This is my first upload. I'm pretty sure I got it close.

 G Dm G 
If i told you that I loved you,
            Dm 
would I be saying something you don't know?

          G 
And if I showed you just how lovely you are
             Dm 
would you believe me?

                 G 
Well, I hope you would.
                 Dm 
Well, I hope you would.

                 C 
'Cause I've got hopes and dreams, and big machines
     G 
and days so bright they'll make you sing;
         Dm 
They'll make you sing along

                C 
And when we're standing there, the two of us,
       F G 
we'll see the question marks are all gone.

        G 
Like a bandit in a small town
       G4 
who decides to use a small toy gun

          Dm 
He isn't ready to move with violence
         G Dm 
he just finds himself when he finds himself on the run.

                 F 
'Cause he's got hopes and dreams, and big machines
and days so bright they'll make you sing;
         G 
They'll make you sing along.

            F 
When we're standing there the two of us
       C G 
we'll see the question marks are all gone.

             F C 
They're all gone.
            G 
They're all gone.



I found the song as the backtrack to a youtube video. So far it hasn't gotten big 
enough for me to find any other chords, tabs or lyrics to it. I also can't find it 
as a standalone video on youtube. Good luck.

Minister Of Rock N Roll Tabs by Dirty Wolves

 ---------------------------------------------------------------------------
                   Minister of Rock N Roll – Dirty Wolves
------------------------------------------------------------------------------
Tabbed by: T Davies
E-mail:  trevordavies1@outlook.com
Tuning:  Drop D

(Verse in C x 6 including 2x for intro with no vox)

e|-----------------------------------------------------------------------------|
B|-----------------------------------------------------------------------------|
G|-----------------------------------------------------------------------------|
D|---2/4--4--4--4--------------------------------------------------------------|
A|-2--2--2--2--2--5--3--0------------------------------------------------------|
D|----------------5--3--0------------------------------------------------------|

Pre Chorus (Only solution is a revolution)

e|---------------------------------------------------------------------------|
B|---------------------------------------------------------------------------|
G|---------------------------------------------------------------------------|
D|---3--3--3--3--------------------------------------------------------------|
A|-1--1--1--1---3--1--0------------------------------------------------------|
D|--------------3--1--0------------------------------------------------------|

Chorus – (We need a minister)

e|---------------------------------------------------------------------------|
B|---------------------------------------------------------------------------|
G|---------------------------------------------------------------------------|
D|---5--5--5--5--3--3--3--3--------------------------------------------------|
A|-3--3--3--3---1--1--1--1---3--1--0-----------------------------------------|
D|---------------------------3--1--0-----------------------------------------|

Bridge Section with galloping drums – Repeat x 4

e|---------------------------------------------------------------------------|
B|---------------------------------------------------------------------------|
G|---------------------------------------------------------------------------|
D|---------------------------------------------------------------------------|
A|---------------------------------------------------------------------------|
D|-----0--0--0--0--0--5--3--0------------------------------------------------|

Solo

Solo Outro Climb
e|---------------------------------------------------------------------------|
B|---------------------------------------------------------------------------|
G|---------------------------------------------------------------------------|
D|---------------------------------------------------------------------------|
A|---------------------------------------------------------------------------|
E|--3-----5-----8----10---12--14--15-----------------------------------------|


Rock N Roll Anthem x 4

e|-----------------------------------------------------------------------------|
B|-----------------------------------------------------------------------------|
G|-----------------------------------------------------------------------------|
D|---------9----9-----9--------------------------------------------------------|
A|-----7----7------7-----------------------------------------------------------|
E|-----------------------------------------------------------------------------|


e|---------------------------------------------------------------------------|
B|---------------------------------------------------------------------------|
G|---------------------------------------------------------------------------|
D|---------------------------------------------------------------------------|
A|--10-12---10--12--10--12---10--12------7--9--7--9--7----5--7--5--7--5--7---|
E|--10-12---10--12--10--12---10--12------7--9--7--9--7----5--7--5--7--5--7---|


e|--------------------------------------------------------