Month: August 2013

Today Tabs by Smashing Pumpkins V7

 -----------------------------------------------------------------------------             
                           Today - Smashing Pumpkins
-----------------------------------------------------------------------------

TUNING: STANDARD

Yes, it's in standard. The majority of the songs on Siamese Dream
are (excluding Hummer, of course). You could also play it one
step down if you really wanted to, though.

INTRO:
e|-11----13----11----15p11----|
B|----11----11----11-------11-|
G|----------------------------|
D|----------------------------|
A|----------------------------|
E|----------------------------|

One guitar does this for the entire intro (12 bars?). The first 4 times, clean,
the next 8(?) times, distorted

After the first four times, another guitar plays this:
e|---------------------------------|
B|---------------------------------|
G|-8-8-8-8-------------------------| first two times
D|-8-8-8-8-8-8-8-8-6-6-6-6-6-6-6-6-| and last time
A|-6-6-6-6-8-8-8-8-6-6-6-6-6-6-6-6-|
E|---------6-6-6-6-4-4-4-4-4-4-4-4-|

e|-------------------------------------|
B|-------------------------------------|
G|-8-8-8-8-----------------------------|
D|-8-8-8-8-8-8-8-8-10-10-10-10-6-6-6-6-| third time only
A|-6-6-6-6-8-8-8-8-10-10-10-10-6-6-6-6-|
E|---------6-6-6-6--8--8--8--8-4-4-4-4-|

While yet another guitar plays this:
e|-------------------------------------------------------------------------|
B|-------------------------------------------------------------------------|
G|-12---------------12b-12---------------12b-------12----12-12-12b---------|
D|-------------------------------------------13-13----13-------------13-13-|
A|-------------------------------------------------------------------------|
E|-------------------------------------------------------------------------|

e|-------------------------------------------------------------------------|
B|-------------------------------------------------------------------------|
G|-12---------12b---------12----------12b-------12-------12-12b---12---12--|
D|----13---13-----13---13----13-13-13-----13-13----13-13-------------------|
A|-------------------------------------------------------------------------|
E|-------------------------------------------------------------------------|

e|-------------------------------|
B|------------13-----------------|
G|-12---12b--------12-10---12-15-|
D|-------------------------------| 
A|-------------------------------|
E|-------------------------------|

VERSE 1:
e|-6-6-6-6-6-6-6-6-4-4-4-4-4-4-4-4-| don't try to hit
B|-6-6-6-6-6-6-6-6-4-4-4-4-4-4-4-4-| every note
G|-8-8-8-8-7-7-7-7-5-5-5-5-5-5-5-5-|
D|-8-8-8-8-8-8-8-8-6-6-6-6-6-6-6-6-| x3
A|-6-6-6-6-8-8-8-8-6-6-6-6-6-6-6-6-|
E|---------6-6-6-6-4-4-4-4-4-4-4-4-|

e|-6-6-6-6-6-6-6-6--8--8--8--8--8--8--8--8-|
B|-6-6-6-6-6-6-6-6--8--8--8--8--8--8--8--8-|
G|-8-8-8-8-7-7-7-7--9--9--9--9--9--9--9--9-|
D|-8-8-8-8-8-8-8-8-10-10-10-10-10-10-10-10-|
A|-6-6-6-6-8-8-8-8-10-10-10-10-10-10-10-10-|
E|---------6-6-6-6--8--8--8--8--8--8--8--8-|

Another guitar comes in on the last two bars and plays the above
chords as power chords

CHORUS 1:
e|-----------------------------------------|
B|-----------------------------------------|
G|-----------------------------------------|
D|-3-3-3-3-6-6-6-6-10-10-10-10-10-10-10-10-| x3
A|-3-3-3-3-6-6-6-6-10-10-10-10-10-10-10-10-|
E|-1-1-1-1-4-4-4-4--8--8--8--8--8--8--8--8-|
 |
e|-----------------------------------------|
B|-----------------------------------------|
G|------------------------------10b--------| first and third
D|-----------------------------------------| bars only. not
A|-----------------------------------------| second or fourth
E|-----------------------------------------|

last measure
e|-------------------------------------|
B|-------------------------------------|
G|-------------------------------------|
D|-3-3-3-3-6-6-6-6-5-5-5-5-12-12-12-12-|
A|-3-3-3-3-6-6-6-6-5

Not Gonna Die Tabs by Skillet V2

 Skillet- Not Gonna Die Guitar Tabs
Tuning: Drop C# (C#,G#,C#,F#,A#,D#)

INTRO:
|-----------------------------------------------------------------|
|-----------------------------------------------------------------|
|-----------------------------------------------------------------|
|-0-0-0-0-0-0-0-0-2-2-2-2-2-2-2-2-4-4-4-4-4-4-4-4-7-7-7-7-7-7-7-7-|
|-0-0-0-0-0-0-0-0-2-2-2-2-2-2-2-2-4-4-4-4-4-4-4-4-7-7-7-7-7-7-7-7-|
|-0-0-0-0-0-0-0-0-2-2-2-2-2-2-2-2-4-4-4-4-4-4-4-4-7-7-7-7-7-7-7-7-|

|---------------------------------|   |------------------|   
|---------------------------------|   |------------------|
|---------------------------------|   |------------------|
|---------------------------------|   |------------------|
|-0-0-0-0-0-0-0-0-3-3-3-3-3-3-3-3-|   |-44-44-44-44-7--2-|x2
|-0-0-0-0-0-0-0-0-3-3-3-3-3-3-3-3-|   |-44-44-44-44-7--2-|
|-0-0-0-0-0-0-0-0-3-3-3-3-3-3-3-3-|   |-44-44-44-44-7--2-|
VERSE:
|----------|
|----------|
|----------|x4
|-44-44-44-|
|-44-44-44-|
|-44-44-44-|

|---------------------|
|---------------------|
|---------------------|x4
|-44-44-44------------|
|-44-44-44--4-2-4-5-4-|
|-44-44-44------------|
            *-*-*-*-*
PRE-CHORUS:
|-14-14-14-14-14-14-16~13-| (From the highest string Which is the Drop D# string)
CHORUS:
|-----------------------------------------------------------------|
|-----------------------------------------------------------------|
|-----------------------------------------------------------------|
|-0-0-0-0-0-0-0-0-4-4-4-4-4-4-4-4-7-7-7-7-7-7-7-7-2-2-2-2-6-7-9-7-|
|-0-0-0-0-0-0-0-0-4-4-4-4-4-4-4-4-7-7-7-7-7-7-7-7-2-2-2-2-6-7-9-7-|
|-0-0-0-0-0-0-0-0-4-4-4-4-4-4-4-4-7-7-7-7-7-7-7-7-2-2-2-2-6-7-9-7-|

|-----------------------------------------------------------------|
|-----------------------------------------------------------------|
|-----------------------------------------------------------------|
|-0-0-0-0-0-0-0-0-4-4-4-4-4-4-4-4-7-7-7-7-7-7-7-7-2-2-2-2-2-2-2-2-|
|-0-0-0-0-0-0-0-0-4-4-4-4-4-4-4-4-7-7-7-7-7-7-7-7-2-2-2-2-2-2-2-2-|
|-0-0-0-0-0-0-0-0-4-4-4-4-4-4-4-4-7-7-7-7-7-7-7-7-2-2-2-2-2-2-2-2-|

|-----------|
|-----------|
|-----------|
|-4-4-4-4-4-|
|-4-4-4-4-4-|
|-4-4-4-4-4-|
POST CHORUS:
|-----------------------------------------------------------------|
|-----------------------------------------------------------------|
|-----------------------------------------------------------------|
|-0-0-0-0-0-0-0-0-2-2-2-2-2-2-2-2-4-4-4-4-4-4-4-4-7-7-7-7-7-7-7-7-|
|-0-0-0-0-0-0-0-0-2-2-2-2-2-2-2-2-4-4-4-4-4-4-4-4-7-7-7-7-7-7-7-7-|
|-0-0-0-0-0-0-0-0-2-2-2-2-2-2-2-2-4-4-4-4-4-4-4-4-7-7-7-7-7-7-7-7-|

|---------------------------------|
|---------------------------------|
|---------------------------------|
|-0-0-0-0-0-0-0-0-3-3-3-3-3-3-3-3-|
|-0-0-0-0-0-0-0-0-3-3-3-3-3-3-3-3-|
|-0-0-0-0-0-0-0-0-3-3-3-3-3-3-3-3-|
VERSE:
|----------|
|----------|
|----------|x4   
|-44-44-44-|
|-44-44-44-|
|-44-44-44-|

|---------------------|
|---------------------|
|---------------------|x4
|-44-44-44------------|
|-44-44-44--4-2-4-5-4-|
|-44-44-44------------|
            *-*-*-*-*

PRE-CHORUS:
|-14-14-14-14-14-14-16~13-| (From the highest string Which is the Drop D# string)
CHORUS:
|-----------------------------------------------------------------|
|-----------------------------------------------------------------|
|-----------------------------------------------------------------|
|-0-0-0-0-0-0-0-0-4-4-4-4-4-4-4-4-7-7-7-7-7-7-7-7-2-2-2-2-6-7-9-7-|
|-0-0-0-0-0-0-0-0-4-4-4-4-4-4-4-4-7-7-7-7-7-7-7-7-2-2-2-2-6-7-9-7-|
|-0-0-0-0-0-0-0-0-4-4-4-4-4-4-4-4-7-7-7-7-7-7-7-7-2-2-2-2-6-7-9-7-|

|-----------------------------------------------------------------|
|-----------------------------------------------------------------|
|-----------------------------------------------------------------|
|-0-0-0-0-0-0-0-0-4-4-4-4-4-4-4-4-7-7-7-7-7-7-7-7-2-2-2-2-2-2-2-2-|
|-0-0-0-0-0-0-0-0-4-4-4-4-4-4-4-4-7-7-7-7-7-7

Hero Tabs by Skillet V8

 -----------------------------------------------------------------------------
                             Hero - Skillet
-----------------------------------------------------------------------------
Tabbed by: Michael Glodoski
E-mail:iamnumber12@live.com

Tuning:
Elec. Gtr. 1: Drop Db (C#) 
Elec. Gtr. 2: Drop Db (C#) (w/dist.)
Elec. Gtr. 3: Drop Db (C#) (w/dist.)

Intro: Elec. Gtr. 1
eb|-7777-|     -------14-14-15-15-14-14-------17-17-15-15-14-14-|
Bb|------|     -17-17-------------------15-15-------------------|
Gb|------|(x7) -------------------------------------------------| (x4)
Db|------|     -------------------------------------------------|
Ab|------|     -------------------------------------------------|
Db|------|     -------------------------------------------------|

Intro: Elec. Gtr. 2
eb|-------------------------------------------------------------------------|
Bb|-----7-7-8-8-7-7-----10-10-8-8-7-7-----7-7-8-8-7-7-----10-10-10-10-10-10-|
Gb|-9-9-------------7-7---------------9-9-------------7-7--------7--7--7--7-|
Db|-------------------------------------------------------------------------|
Ab|-------------------------------------------------------------------------|
Db|-------------------------------------------------------------------------|

eb|-----------------------------------|      -8---8---8---8-|
Bb|-----7-7-8-8-7-7-----10-10-8-8-7-7-|      --12--12--12---|
Gb|-9-9-------------7-7---------------| (x4) ---------------|(hold notes)
Db|-----------------------------------|      ---------------|
Ab|-----------------------------------|      ---------------|
Db|-----------------------------------|     ----------------|

Intro: Elec. Gtr. 3 {} = play first time only
eb|----------|  ------------------------------------|      -------------|
Bb|----------|  ------------------------------------|      -------------|
Gb|----------|  ------------------------------------|      -------------|
Db|-(2222-2)-|  -2222-225-550-2222-22-10-101012{12}-| (x2) -2--xx2-xx20-|
Ab|-(2222-2)-|  -2222-225-550-2222-22-10-101012{12}-|      -2--xx2-xx20-|
Db|-(2222-2)-|  -2222-225-550-2222-22-10-101012{12}-|      -2--xx2-xx20-|
     **** *
 
Verse 1 & 2: Elec. Gtr. 3 () = play 2nd Verse only
eb|-------------------------------------------------------------------|
Bb|-------------------------------------------------------------------|
Gb|-------------------------------------------------------------------|
Db|-2222-------------------------------------2222---------------------|
Ab|-2222-3-2----------------2--3-2--------5--2222-3-2-----------------|
Db|-2222-----x-5545-x-7745-2--2----x5545x7-7-2222-----(x-5545)-x-7745-|
                 ****   ****          **** ***             ****    ****   
eb|-------------------|
Gb|-------------------|
Db|-------------------|
Ab|--2--3-2--------5--|
Db|-2--2----x5545x7-7-|
             **** ***
Pre-Chorus: Elec. Gtr. 2 (words placed where you play notes)
1. It’s just an-oth-er war             Just another...
2. It’s just an-oth-er war             Just another...
eb|--------7-----8------7------7--------------------|
Bb|-------------------------------------------------|
Gb|-----9----9--------------9-----------------------|
Db|-------------------------------------------------|
Ab|-------------------------------------------------|
Db|-------------------------------------------------|

Pre-Chorus: Elec. Gtr. 2 (words placed where you play notes)
1. Just a step from the edge              Just an-oth-er day...
2. It’s just an-oth-er kill           The count-down begins...
eb|----------7---8------7------7----------7-----------------|
Bb|---------------------------------------------------------|
Gb|-----9------9-------------9------9-----------------------|
Db|---------------------------------------------------------|
Ab|---------------------------------------------------------|
Db|----------------------------------------------------

Freakshow Chords – Skillet V2

 Freakshow, Skillet

 G   |  ( G )  |   Bm   |  -  :||   G   |  ( G )  A   |   Bm   |   G   |  ( G )  A   |   E5   |   E5   |

VERSE 1
   Bm          ( D )        4x
a-9---9---9-7-9--|
e-7---7---7-7-10-|

Welcome to the Freak show!
Step up, status quo!
Hope you enjoy the ride!
Welcome to the Freakshow!
We've got horns and halos!
We ain't afraid and we ain't buyin' their lies!

   E5 G5 Bm 
d-9-9---9-9---9--|----------------|----------------|----------------|
a-7-7---7-7---7--|-5-5---5-5---5--|-9-9---9-9---9--|-9-9---9-9---9--|
e----------------|-3-3---3-3---3--|-7-7---7-7---7--|-7-7---7-7---7--|


Eat it Drink It Think It Be It Breath It
Guess you don't even know who I am
I do
   E5 G5 F#5 
d-9-9---9-9---9--|----------------|----------------|------------|
a-7-7---7-7---7--|-5-5---5-5---5--|-4-4---4-4---4--|-4-4-4-4-4--|
e----------------|-3-3---3-3---3--|-2-2---2-2---2--|-2-2-2-2-2--|


Believe it Need it See it Feed It Breath It
Time to make my final stand

CHORUS
                Bm G 
Welcome to the Freakshow!   This is where the freaks go!

   D     bend     bend    A E5 F#5 
d-7-7-------7-7------|-----------------|
a-5-5-(7)---5-5-(7)--|-7-7-7-7-2-2-4-4-|
e--------------------|-5-5-5-5-0-0-2-2-|


This is the place, that they, can never take away!

                Bm G 
Welcome to the Freakshow! We don't ever need no!

   D     bend     bend    A 
d-7-7-------7-7------|-----------------|
a-5-5-(7)---5-5-(7)--|-7-7-7-7-7-7-7-7-|
e--------------------|-5-5-5-5-5-5-5-5-|


One to tell us who to be How to think
I don't care what they believe

  G        D        bend bend bend                 bend
d---------(x)-7-7-9-|------------||--------------9---|----------||
a-5---5---(x)-5-5-7-|-7----7---7-||:----7-9--------7-|-(7)-----:||
e-3---3-------------|------------||-7-7-----10-7-----|----------||


Oh Oh Oh!  Welcome to the Freakshow!

***That's my suggestin, following Tab is taken from the older Version of "romantic" 
Thanks, hope you allow me to!***

VERSE 2

 Bm 
Welcome to the Outcast!
 Bm 
Take a step across the tracks!
 Bm A 
We ain't got nothin' to prove!
        Bm 
Don't need to start a face
        Bm 
Don't need your head to shake
        Bm D 
'Cause it's my life to live and I ain't livin' for you!
 Em 
Eat it
Drink It
Think It
 G 
Be It
Breath It
            Bm 
Guess you don't even know who I am
 Em 
Believe it
Need it
See it
 G 
Feed It
Breath It
          F#m 
Time to make my final stand

CHORUS
[ Tab from: http://www.guitaretab.com/s/skillet/359655.html ]
                    Bm 
Welcome to the Freakshow!
                    G 
This is where the freaks go!
               D A Em 
This is the place, that they, can never take away!
                   Bm 
Welcome to the Freakshow!
                 G 
We don't ever need no!
One to tell us
 D Em 
who to be
 D Em 
How to think
 A 
I don't care what they believe
 G D 
Oh Oh Oh!
 Em 
Welcome to the Freakshow!

Solo

 Bm Em D A Bm Em D A Bm Em D <s

Bring Me The Night Chords – Sam Tsui

 F Bb C F Dm Am Dm C Bb C 
Measuring days in the spaces between our goodbyes
                  F 
Learning to wait through the endless parade
             Am F Am C Bb 
Of our same old see-you-next-time's
                                        F 
But when I close my eyes, the miles melt away
 Bb F Dm - C 
Like you're here in my arms at the end of the day

                                 F C 
So bring me the night, send out the stars
                               Dm Bb 
Cause when I'm dreaming we don't seem so far
                       F C 
Darken the sky, and light up the moon
                        Dm Bb 
So that somehow you'll be here with me soon
                          F 
Bring me the night
                         Dm - Bb 
Bring me the night
                                                     F 
That brings me to you
 Am Dm C 
You

                         F Am F 
Swear I don't know if the days are as slow as they seem

Wondering when you'll be with me again and this
                                                           Bb 
Finally can be more than just a dream
                                       Am Dm C           
But when I close my eyes,    I want only to stay
 Bb Am Dm - C 
   Where the farthest you are is a heartbeat away

                                 F C 
So bring me the night, send out the stars
                               Dm Bb 
Cause when I'm dreaming we don't seem so far
                       F C 
Darken the sky, and light up the moon
                        Dm Bb 
So that somehow you'll be here with me soon
                          F 
Bring me the night
                         Dm - Bb 
Bring me the night
                                                     F 
That brings me to you
 Am Dm C 
You

                Eb Bb F 
And it's enough, knowing you are calling to me
                        C Eb 
While we're dreaming beneath the same moon
              Bb Dm C 
All it takes is imagining you so that I can get through
                    Gm Bb C 
One more long and lonely day

                                 F C 
So bring the night, tell me it's near
                          F Dm 
Give me the chance to to pretend to you're here
 F Bb C 
Darken the sky and light up the moon,
                          Eb 
Please bring it soon 
(Bring it soon)

                                 F C 
So bring me the night, send out the stars
                               Dm Bb 
Cause when I'm dreaming we don't seem so far
                       F C 
Darken the sky, and light up the moon
                        Dm Bb 
So that somehow you'll be here with me soon
                          F 
Bring me the night
                         Dm - Bb 
Bri

Bring Me The Night Chords – Sam Tsui V3

 "Bring Me The Night"
(feat. Kina Grannis)

Hi. Here's the chords for bring me the night. 


 G D Em Cadd9 
Measuring days in the spaces between our goodbyes
 G D 
Learning to wait through the endless parade
 Em Cadd9 
Of our same old see-you-next-time's
 Em G Cadd9 D 
But when I close my eyes, the miles melt away
 Em G Cadd9 D 
Like you're here in my arms at the end of the day

 G D   
So bring me the night, send out the stars
 Em Cadd9 
Cause when I'm dreaming we don't seem so far
 G D   
Darken the sky, and light up the moon
 Em Cadd9 
So that somehow you'll be here with me soon
 G D   
Bring me the night
 Em Cadd9 
Bring me the night
 G D   
That brings me to you
 Em Cadd9 
You


 G D Em Cadd9 
Swear I don't know if the days are as slow as they seem
 G D   
Wondering when you'll be with me again and this
 Em .                              Cadd9 
Finally can be more than just a dream
 Em .                       G Cadd9 D 
But when I close my eyes, I want only to stay
 Em G Cadd9 D 
Where the farthest you are is a heartbeat away

 G D   
So bring me the night, send out the stars
 Em Cadd9 
Cause when I'm dreaming we don't seem so far
 G D   
Darken the sky, and light up the moon
 Em Cadd9 
So that somehow you'll be here with me soon
 G D   
Bring me the night
 Em Cadd9 
Bring me the night
 G                                     
That brings me to you

 Em D Cadd9  
And it's enough, knowing you are calling to me
 G .                                                     Em 
While we're dreaming beneath the same moon
 D Cadd9 G 
All it takes is imagining you so that I can get through
 Em D Cadd9 
One more long and lonely day

 G D   
So bring the night, tell me it's near
 Em Cadd9 
Give me the chance to to pretend to you're here
 G D   
Darken the sky and light up the moon,
 Em Cadd9 
Please bring it soon


 G D   
So bring me the night, send out the stars
 Em Cadd9 
Cause when I'm dreaming we don't seem so far
 G D   
Darken the sky, and light up the moon
 Em Cadd9 
So that somehow you'll be here with me soon
 G D   
Bring me the night
 Em Cadd9 
Bring me the night
 G D   
Bring me the night
 Em Cadd9 
Bring me the night
 G *                                  
That brings me to you

I hope you enjoy it. Bye! :)

-nyyazz-

Bring Me The Night Chords – Sam Tsui V2

 hi guys! i dont think the chords are 100% accurate but they're close enough so 
yeah... comment your corrections if you find something that fits better. anyways,i 
hope this is helpful to you :) -Xanna                            
         * = strum only once             

                              BRING ME THE NIGHT

                            Sam Tsui & Kina Grannis

CAPO 3

intro: D (if you want to play it but its better on the piano)

 D Bm F#m A 
Measuring days in the spaces between our goodbyes
 D Bm F#m A 
Learning to wait through the endless parade of our same old "see-you-next-time's"
 G *                    D *     Bm *              A *
But when I close my eyes, the miles melt away
 G *                        D *                     Bm *   A * 
Like you're here in my arms at the end of the day


                   D A 
So bring me the night, send out the stars
                   Bm G 
Cause when I'm dreaming we don't seem so far
             D A 
Darken the sky, and light up the moon
          Bm G 
So that somehow you'll be here with me soon
                 D A 
Bring me the night
                Bm G *
Bring me the night
                      D 
It brings me to you     you...

(strum only once in this verse if you want)
 D Bm F#m A 
I Swear I don't know if the days are so slow as they seem
 D Bm F#m A 
Wondering when you'll be with me again and this finally can be more than just 
       
 A  dream
  G *                       D *  Bm *                  A *                 
  But when I close my eyes, I want only to stay
  G *                           D *                 Bm *   A *
  Where the farthest you are is a heartbeat away



                     D A 
So bring me the night, send out the stars
                    Bm G 
Cause when I'm dreaming we don't seem so far
              D A 
Darken the sky, and light up the moon
              Bm G 
So that somehow you'll be here with me soon
                  D A            
Bring me the night
                  Bm G 
Bring me the night
                     D 
That brings me to you


             C G 
And it's enough knowing you 
                        D A C 
I know that you are calling to me while we're dreaming beneath the same moon
          G Bm A 
All it takes is imagining you so that I can get through
         Em *          D *      A *
One more long and lonely day



                  D *                   A *
So bring the night, tell me it's near
               Bm *                             A *
Give me the change to to pretend to you're here
               D *                    A *
Darken the sky and light up the moon,
 C 
Please bring it soon



                     D A 
So bring me the night, send out the stars
                     Bm G 
Cause when I'm dreaming we don't seem so far (we don't seem so far)
              

Beggars Guild Chords – Roadkill Ghost Choir

 Intro:
 Em G D C Em G 
Oh put it on, take it off real quick
         D C 
on the bottom of the pile, I’m feelin sick.
 Em G 
It never cross my mind, That my baby lied, no-
       D C 
To keep me in the beggar’s guild.

So I sleep all day and I dream all night
with the bottle in my hand I take the devil’s side.
I smile real big just to keep it hid
oh, the truth about my lack of will.

Oh I run like hell from the city’s glow
I lose my name, I pass and forget the folks I used to know.
If I go far away from the city gates
and the long reach of the government.

Oh all alone in a cold north scene,
in the blue sky above a plane flew over me.
The banner it pulled said “you were a fool,”
“did you really think you’d ever win?”

        D C 
I’m taking off my dirty skin.
         D C 
There is nothing to refute my sin.

 Am G C 
I fear  no      one
 Am G C D 
I fear  no      one but you.
 Am G C 
(Don’t care…    No      no )
 Am G C D 
I lie   only to  tell the truth.
(No)

Well the steep demands of the higher call
Oh you pawn off the world so the cars won’t stall.
I'll burn my clothes and I'll gut my soul
and pretend that I was never born (ayyyyah yeah).

Oh my oh my, look what you have done
Split your head out on the floor like you’re the chosen one.
I gave her my heart but she wanted no part
so I sold it to an antique store.

So I dug a hole four thousand miles down
To the center of the Earth where I will not be found.
Memories of the moon singing see you soon,
Though I was always partial to the sun.

I was picked up by two men of the law
They said we’re taking you downtown, forget about your call.
Hell’s no place for a wandering face
Go take it up with Beelzebub.

You laugh as you pull out the rug
I was never really much in love.

I fear no one
I fear no one but you.
(Don’t care… No ... no )
I lie only to tell the truth.
(No ...)

Pacific Rim Tabs by Ramin Djawadi

 Tabbed by:  Lena Johnson
E-mail:  bymeownbeard@gmail.com

Tuning:  Drop-D

This tab:  Bare bones – fill in what you need, but this will get you started.


INTRO (Repeat as necessary):
e|---------------------------------------------------------------------------|
B|---------------------------------------------------------------------------|
G|---------------------------------------------------------------------------|
D|---------------------------------------------------------------------------|
A|-8-7-8-7-----5-5-5-------5-5-5---------------------------------------------|
D|---------10--------0-0-0---------------------------------------------------|

Next Part (Make adjustments as necessary, and repeat):
e|---------------------------------------------------------------------------|
B|---------------------------------------------------------------------------|
G|---------------------------------------------------------------------------|
D|---------------------------------------------------------------------------|
A|-8p7p0-3-5---5-3-5-3-5p3-5-3-5---------------------------------------------|
D|---------------------------------------------------------------------------|

Alternative version of above:
e|---------------------------------------------------------------------------|
B|---------------------------------------------------------------------------|
G|-------------7-5-7-5-7/5-7-5-7--5-5-5-5-4-4-4-4----------------------------|
D|---------------------------------------------------------------------------|
A|-8p7p0-3-5---5-3-5-3-5/3-5-3-5--3-3-3-3-2-2-2-2----------------------------|
D|---------------------------------------------------------------------------|


Next Part (Some adjustments needed):

e|---------------------------------------------------------------------------|
B|---------------------------------------------------------------------------|
G|---------------------------------------------------------------------------|
D|---------------------------------------------------------------------------|
A|-0-3-6-2-------------------------------------------------------------------|
D|-0-3-6-2-------------------------------------------------------------------|

Next Part:
e|---------------------------------------------------------------------------|
B|---------------------------------------------------------------------------|
G|---------------------------------------------------------------------------|
D|---------------------------------------------------------------------------|
A|------------------------8-7-8-7--------------------------------------------|
D|-0-0-0-0--0-0-0--0-0-0----------10-----------------------------------------|


************************************

| /   slide up
| \   slide down
| h   hammer-on
| p   pull-off
| ~   vibrato
| +   harmonic
| x   Mute note
| b   Bend
| pb  Pre-bend
| br  Bend release
| pbr Pre-bend release
| brb Bend release bend

************************************

Girl From The Hiring Fair Chords – Ralph Mctell

 Ralph McTell
Girl From The Hiring Fair

 Em C G D 
I went down to the hiring fair, for to sell my labour, 
       Em C Bm                             
and I noticed a maid in the very next row and I hoped that she’d be my 
 C 
neighbour.
   G D Em C D 
Imagine then o my delight when the farmer picked us both.
      G C Em D Em C 
I spoke not a word in the cart to the farm but my heart beat in my throat.


    Em C G D 
My lodging was dry and my master fair and I gave him full measure,
        Em C Bm C 
But my envy grew like the corn in the field for in his house was my treasure.
        G D Em C D 
And I’d watch her carry water or drive cows from the byre,
         G C Em D Em   
And the heat from the sun made the corn grow strong and with it my desire

 C Em C Em C G D 
I’d see her in my dreaming and in my dreams caress.
     Em C Bm C 
Her eyes her lips and her dark brown hair the curves beneath her dress.
      G D Em C D 
When harvest time it came at last so heavy was the task 
          G C Em D Em  
That the women and the men worked side by side and I had her near at last.
 C Em C Em C Em C G D 
So I swung harder with my scythe few words between us passed,
       Em C Bm             
And I cursed my tongue tied youthfulness and I hoped that she’d hear my 
 C 
heart.
      G D Em C D 
When all was safely gathered in and we sat down to rest
    G C Em D Em C      
My trembling fingers touched her arm and she placed them on her breast.
         Em C G D 
And she turned to me as the sun went down and all my senses reeled,
       Em C Bm C 
As we lay there on the scented ground and the moon rose over the field.


 G  /  D  /  Em  /  C D  /  G  /  C Em  /  C  /  Em  /  C  /  Em  /  C Em C G D 
She was safely gathered in my arms when from the barn
 Em C Bm C 
Drifted the sound of the violin and we hurried back to the farm.
     G D Em C D 
And all were dancing in the lantern light and music filled the air
       G C Em D         
And I thanked my stars for the harvest moon and the girl from the hiring
 Em C Em C 
fair.

     G D Em C D 
And all were dancing in the lantern light and music filled the air,
       G C Em D          
And I thanked my stars for the har

Little Light Chords – Rachel Platten

 Artist: Rachel Platten
Title: Little Light
Album: Be Here (2011)
Tabbed by: Sam Sommerfeld


It's easy to play and the beat stays pretty steady throughout the song.
I strum it Down,Down..Down,Up,Down,Up.


CAPO ON 3rd FRET
tuning: Standard


     C Em E7 Am G G F 
e|  0   0    0    0   3    3   1
B|  1   0    0    1   3    0   1
G|  0   0 or 0    2   0 or 0   2
D|  2   2    0    2   0    0   3
A|  3   2    2    0   2    2   3
E|  x   x    x    x   3    3   1




                  C Em 
Looking for a little light to illuminate
      Am G C 
The truth in the stillness after everything is blown away
                    Em 
Life fades in the cuts and the struggles
    Am G 
I just need a light at the end of the tunnel


 C Em 
Look up
          Am G C 
Do the lines on your face cut a little bit deeper
    Em Am G 
I know you're not feeling very young


 C Em 
So tired
  Am G 
Stuck in the place and you don't wanna be here
 C Em 
I know
         Am G 
Voices call you in the night...
 F F 
Come away! Come away!

Just looking for a little light to illuminate
The truth in the stillness after everything is blown away
Life fades in the cuts and the struggles
I just need a light at the end of the tunnel
A little light to illuminate
The truth in the stillness after everything is blown away
Life fades in the cuts and the struggles
I just need a light at the end of the tunnel

Hey now
From the wells of your eyes comes a deep frustration
Sometimes it can seem so hard to try
Everyday is a need for money you bleed
You're lonely when there's someone beside you
I know
That in these arms you'll find...
All of this will pass

Just looking for a little light to illuminate
The truth in the stillness after everything is blown away
Life fades in the cuts and the struggles
I just need a light at the end of the tunnel
A little light to illuminate
The truth in the stillness after everything is blown away
Life fades in the cuts and the struggles
I just need a light at the end of the tunnel


          Am Em Am G 
Cause everybody needs a harbor in the tempest
     Am Em Am                  
A reason to believe you're more than what you have
       G 
Even more than what you had
        F 
Cause all of this will pass...


Looking for a little light to illuminate
The truth in the stillness after everything is blown away
Life fades in the cuts and the struggles
I just need a light at the end of the tunnel
A little light to illuminate
The truth in the stillness after everything is blown away
Life fades in the cuts and the struggles
I just need a light at the end of the tunnel
A little light to illuminate
The truth in the stillness after everything is blown away
Life fades in the cuts and the struggles
I just need a light at the end of the tunnel

Pass Me By Chords – R5

 Heey everyone new single of R5. It's really awsome. 
I did this by ear and I've made the lyrics but I don't know if it's good. The tune 
is a little bit higher I think Sorry for that. 
and Enjoy of this song :)

No Capo     



        E A B A 
E|-----0-----0-----2-----5-----|
B|-----0-----2-----4-----5-----|
G|-----1-----2-----4-----6-----|
D|-----2-----2-----4-----7-----|
A|-----2-----0-----2-----7-----|
E|-----0-----0-----2-----5-----|


Intro 

 E , A , B , A E A B A 
Remember that trip we took in mexico yeah
 E A B A 
Hanging with the boys and all your senoritas
 E A B A 
I never spoke up yeah I never said hello 
 E A B A 
But I keep on tryna find a way to meet ya


 E A B A 
I was chilling you were with him hook to by the fire
 E A B A 
Now he's long gone now like so long now I got my chance
                                E 
now now I got my chance like yeah 


                   A B 
You could me the one that can mess me up
                   A E 
You could be the one that'll break me down
                 A B 
All him other girls saying had enough 
                   A 
You could be the one that'll take me 
 E A B A E 
I was so lone living no long till you blew my mind Like yeah 
                   A B 
You could be the one that can mess me up
                    A E 
I can't let you I can't let you pass me by
     E A B A E 
2x ooh ooh ooh ooh ooh ooh I can't let you pass me by 


 E A B A 
I was tryna play to cool to get caught up
      E A B A 
Like to fun to young to fall to pieces 
    E A B A 
I know a girl like you can never get enough 
          E A B A 
So I'm addicted tripping tryna get you to see this 


 E A B A 
when I meet you like I'm see trough dancing out my pants 
 E A 
Got you shooking got you looking
 B A E 
Now I got my chance now now I got my chance like yeah


                  A B 
You could be the one that can mess me up
                   A E 
You could be the one that'll break me down 
                 A B 
All him other girls saying had enough 
                   A 
You could be the one that'll take me 
 E A B A E 
I was so lone living no long till you blew my mind like yeah
                   A B 
You could be the one that can mess me up 
                    A E 
I can't let you I can't let you pass me by 
     E A B A E 
2x ooh ooh ooh ooh ooh ooh I can't let you pass me by



        E A 
Like everywhere I'm looking everywhere I go
      B A 
A million other guys be starring and I know 
      E A 
That I can be yours and you can be 

Pass Me By Chords – R5 V2

 Chords:  G D E C G D E C 
Remember that trip we took in Mexico, yeah
                G D E C 
Hangin' with the boys and all your senoritas
          G D E C 
I never spoke up, yeah I never said hello
     G D E C 
But I keep on tryin' to find a way to meet ya, yeah
       G D 
I was chillin', you were with him
   E C 
Hooked up by fire
     G 
Now he's long gone
              D 
I'm like "So long"
             E 
Now I've got my chance
               C 
Now I now I got my chance
             G D E 
Like damn, You can be the one that could mess me up
             C 
You can be the one that'll break me
      G D E 
Damn, all them other girls said they had enough
      C 
You can be the one that'll take me
     G D 
I was solo, livin' YOLO
      E C 
Till you blew my mind
           G D E 
Like damn, you can be the one that could mess me up
                            C 
I can't let you, can't let you pass me by
    G D E 
Oh oh, oh oh, oh oh
           C 
I can't let you pass me by
      G D E 
Oh oh, oh oh, oh oh
             C 
I can't let you pass me by

Play G D E C through the rest of the song

I was tryin' to play too cool to get caught up
Like, too fun too young to fall to pieces
I know a girlslike you can never get enough
So I'm addicted, trippin', tryin' to get you to see this

The way I need you, like I see through
Dancin' out my pants
Got you shooking, got you lookin'
Now I've got my chance
Now I now got my chance

Like damn, you can be the one that could mess me up
You can be the one that'll break me
Damn, all them other girls said they had enough
You can be the one that'll take me
I was solo, livin' YOLO
Till you blew my mind
Like damn, you can be the one that could mess me up
I can't let you, can't let you pass me by
Oh oh, oh oh, oh oh
I can't let you pass me by
Oh oh, oh oh, oh oh
I can't let you pass me by

Everywhere I'm lookin', everywhere I go
A million other guys keep starin' and I know that
I can be yours and you can be mine
I just can't let you pass me by by by
Everywhere I'm lookin', everywhere I go
A million other guys keep starin' and I know that
I can be yours and you can be mine
I just can't let you pass me by by by

Like damn, you can be the one that could mess me up
You can be the one that'll break me
Damn, all them other girls said they had enough
You can be the one that'll take me
I was solo, livin' YOLO
Till you blew my mind (Till you blew my mind)
Like damn, you can be the one that could mess me up
I can't let you, can't let you pass me by
Oh oh, oh oh, oh oh
I can't let you pass me by
Oh oh, oh oh, oh oh
I can't let you pass me by
Oh oh, oh oh, oh oh
I can't let you pass me by
Oh oh, oh oh, oh oh
I can't let you pass me by

I Sat By The Ocean Acoustic Chords – Queens Of The Stone Age

             
     ~ Queens of the Stone Age - I sat by the Ocean (acoustic version) ~



Intro:  C  /  Am  /  D  /  E E E/F# G D E 
     I sat by the ocean        and drank a potion, baby to erase you.
 C Am E 
     Face down in the Boulevard, yet I couldn't face you.
 E E/F# G D 
     There ain't no use in crying.       It doesn't change anything,
               E 
     So baby what good does it do?
 C Am 
     Your friends, they all sympathize.
             E 
     Maybe, I don't need them too.

   C E 
Imagine I'd be your one and only
   C E 
Instead I'm the lonely one

 C D E  
You, me and a lie.
 Am D E C 
Silence is closer. We're passing ships in the night.

 E 
    There's nowhere to run away.

 E/F# G  Said,             D E 
      “Boy if you want love, you'll have to go and find it with someone new.”
     C Am E  
      “Do you know who you really are? Are you sure it's really you?”
 E 
       Lies are a funny thing.
 E/F# G D E 
       They slip through your fingertips because they never happened to you.
     C Am E 
       Time wounds all the heals as we fade out of view.

 C E 
Imagine I'd be your one and only
 C E 
Instead I'm the lonely one

 C D E 
You, me and a lie.                                      |
 Am D E C        |  x2
Silence is closer.  We're passing ships in the night.   |


 E C 
Into the night,
 E C 
Left with nowhere to hide.


 C  /  Am  /  D  /  E    x2


 Am D 
Closer and closer.
         E C 
We're crashing ships in the night


 C  /  Am  /  D  /  E     x2   (end on  E )

Hitmix Chords – Pur

 Im folgenden werden deutsche Akkorde benutzt:

Intro:  C F G C F G 
Du bist nicht hart im Nehmen,
Du bist beruhigend weich.
Dich nicht zu mögen, ist nicht leicht.
 Am G 
Wow, hohoho
 C F G 
Du bist kein Einzelkämpfer,
Du bist so herrlich schwach.
Vertrau' mir und benutz' mich,
 Am G F  
Wozu sind denn schließlich Freunde da?

Übergang (nicht ganz korrekt aber auf jeden Fall spielbar):

e|------------------------------------------------|
b|---10-8-7---------------7--------10-8-7-----7---|
g|----------9-7-9~--9-7-9---9-7~----------9-7---9~|
d|------------------------------------------------|
a|------------------------------------------------|
E|------------------------------------------------|


      G C Am D 
Ich lieb' dich, egal wie das klingt,
Ich lieb' dich, ich weiß, dass es stimmt,
            Em D 
Denn ich lieb' mich bei dir,
      C G 
Ich lieb' mich an dir,
      Am D C 
Ich lieb' mich in dir fest.
           G C Am D 
Wooh, ich lieb' dich, egal wie das klingt,
Ich lieb' dich, ich weiß, dass es stimmt,
          Em D 
Denn ich lieb' mich bei dir,
      C G 
Ich lieb' mich an dir,
      Am D C 
Ich lieb' mich in dir fest.
       Am D G 
Wooh, wenn du mich nur lässt.

Übergang 2:
e|-----------------------|
b|-----------------------|
g|--------4-2--(4-2-4-2)*|
d|----1-4----------------|
a|--2--------------------|
E|-----------------------| *um den Delay-Effekt zu immitieren

 H F# E 
Hör gut zu, du bist mein Glück 
                        H 
und ich sing dir meine Lieder
                F# 
Und ich nehm´ keins davon zurück
 E 
Ich lieb dich immer mehr

Hör gut zu du bist mein Glück
Nicht immer, aber immer wieder,
Bin ich total durch dich verzückt,
Du bist mein echtes pures Glück.




 G C 
Wenn du da bist, wenn du Licht siehst,
 Em D 
Und das zum aller ersten Mal.
Wenn sie dich sieht, wenn du mich siehst,
Dann glaub' ich, werden Wunder wahr.
 G D C 
Wir stehen dir bei, oh wir zwei.
 Em D C 
Wir stehen dir bei-ei-ei.




 A E F#m 
Lena, du hast es oft nicht leicht,
     C#m Hm7 
Wie weit die Kraft doch reicht.
              A 
Wenn ich am Boden liege,
 Dsus2 E 
Erzählst du mir, dass ich bald fliege.

Lena, wie ein klarer warmer Wind,
Wenn die Tage stürmisch sind,
Lass ich mich zu dir treiben,
Seelen aneinander reiben.




 Dsus2 A 
Hab' mich wieder mal an dir betrunken.
 E G 
Hochprozentig Liebesrausch,
         D A 
Den schlaf' ich mit dir aus, woho.
 D A 
Bin schon ganz und gar in uns versunken,
 E G 
Heiße Haut als Himmelbett.
 D 
Nie mehr voneinander,
Nie mehr voneinander,
Nie mehr voneinander - weg




                 F Am7 Bb C 
Du blitzt mich an mit deinen Funkelperlenaugen,
Das tut so gut, da ist so viel für mich drin.
Du blitzt mich an mit deinen Funkelperlenaugen,
(Halt mich, halt mich fest und drück' mich, so fest wie du kannst)
Das tut so gut, da ist so viel für mich drin.
(Halt mich

Patchwork Girlfriend Chords – Punch Brothers

 INTRO: 
 Dm Dm/A  (x7)  Dm Dm Dmmaj7 F Bm7b5 Em7b5 A7 
I run my fingers through her blackish blondish hair
         Dm Dmmaj7 F Bm7b5 Am7 Em7b5   
Look into her brown blue eyes and touch her skin so dark and fair
 C G C E7  Em7b5  A7 Dm Dmmaj7 F Bm7b5 Em7b5 A7 
Because I like how she encourages and scolds me
          Dm Dmmaj7 F Bm7b5 Em7b5 A7  
How even as her left hand pushes me away her right arm holds me
 Em7b5 Gm7 Em7b5 A7 F D7 Gm Gdim7 
It's nice to know she's always waiting for me at the dead ends
           F A7 Dm Bb          
Guess I need a little love from every little square of my sweet little 
  C F           
patchwork girlfriend
  D7 Bb C F 
Of my sweet little patchwork girlfriend

 Dm Dm/A  (x7)  Dm Dm Dmmaj7 F Bm7b5 Em7b5 A7 
I can't tell if she would rather take or leave me
         Dm Dmmaj7 F Bm7b5 Am7 Em7b5 
And I'm not sure what I'm saying but I'm sure I want her to believe me
 
 C G C E7  Em7b5  A7 Dm Dmmaj7 F Bm7b5 Gm7 Em7b5  
So I run my fingers through her blackish blondish brownish reddish grayish 
         A7 
(grayish?!) hair

 Dm Dmmaj7 F Bm7b5 Em7b5 A7 Em7b5 A7 
And tell her I won't mess around with other girls unless they're her

 F D7 Gm                     Gdim7
It's nice to know she's always waiting for me at the dead ends
          F A7 Dm Bb    
Guess I need a little love from every little square of my sweet little 
 C F 
patchwork girlfriend
 D7 Bb C F 
Of my sweet little patchwork girlfriend
 Dm Gm Eb F Bb F D7        
Though I'm no more boy scout than boyfriend I could see tying the knot
 Gm Bb A7                  
Instead it's my hands that are tied because that'd be against the law even in Utah

 F D7 Gm Gdim7 
It's nice to know she's always waiting for me at the dead ends
           F A7 Dm Bb                   
Guess I need a little love from every little square of my sweet little 
              A7 
patchwork girlfriend

          F D7 Gm Gdim7 
She's anywhere I could ever go ain't no false start or dead end
             F A7 Dm Bb     
That could take me away from, couldn't bring me back to my sweet little 
 C F   
patchwork girlfriend
 D7 Bb C F     
Or my big bitter patchwork girlfriend
 D7 Bb C Bbm<

Control Acoustic Tabs by Puddle Of Mudd

 Title : Control (Acoustic)
Artist: Puddle of Mudd
Album : Come Clean

Tuning: C#, G#, C#, F#, A#, D# (Drop D half a step down)

 / - slide up

Main Riff

e|-0---0-0-0-0---0-0-0---0---0-0----------------|
B|-3---3-3-3-3---3-3-3---3---3-3----------------|
G|-2---2-2-2-2---2-2-2---2---2-2-5-5---5-5-3----|
D|-0---0-0-3-3---3-3-2---0---0-0-5-5---5-5-3----|
A|-0---0-0-3-3---3-3-2---3---3-3-5-5---5-5-3----|
E|-0---0-0-3-3---3-3-2-----------5-5---5-5-3----|

Intro - Guitar 2
e|--------------------------------|
B|--------------------------------|
G|-5/7---7-7-7-7-9-10---10-10/12--|
D|--------------------------------|
A|-3/5---5-5-5-5-7-8-----8--8/10--|
E|--------------------------------|

e|--------------------------------|
B|--------------------------------|
G|-7/9---9-9-9-9-5-5---5-5/7------|
D|--------------------------------|
A|-5/7---7-7-7-7-3-3---3-3/5------|
E|--------------------------------|

e|--------------------------------|
B|--------------------------------|
G|-5/7---7-7-7-7-9-10---10-10/12--|
D|--------------------------------|
A|-3/5---5-5-5-5-7-8-----8--8/10--|
E|--------------------------------|

e|--------------------------------|
B|--------------------------------|
G|-12---12-12-12-10-10---10-10----|
D|--------------------------------|
A|-10---10-10-10--8--8----8--8----|
E|--------------------------------|

Breakdown 1 (after 2nd chorus)
e|-0---0---0---0-1-0---|
B|-3---3-2-3-----------|
G|-2---2---2-----------| x 3
D|-0---0---0-----------|
A|-0---0---0-----------|
E|-0---0---0-----------|

e|-0---0---0---0---0-0-0---|
B|-3---3-2-3---3---3-3-3---|
G|-2---2---2---2---2-2-2---|
D|-0---0---0---0---0-0-0---|
A|-0---0---0---0---0-0-0---|
E|-0---0---0---0---0-0-0---|

Breakdown 2 ()
e|-0---0-0-0---0-0-0-0-0---|
B|-3---3-3-3---3-3-3-3-3---|
G|-2---2-2-2---2-2-2-2-2---|
D|-0---0-0-0---0-3-3-3-3---|
A|-0---0-0-0---0-3-3-3-3---|
E|-0---0-0-0---0-3-3-3-3---|

As far as I can tell, the majority of the song (Intro, Verse and Chorus) are the same
set of chords. Because of this I have just labelled it 'Main Riff'. The only time the main
riff isn't played is during the breakdown after the second chorus but even then it's 
just a simplified version. I have left out some of the small changes in the breakdown (when
it palm mutes etc.) for the sake of making the tab more readable.

It's important to note that, at least to me, the song sounds better if you don't stick
rigidly to the tab. Add some extra strums and experiment ;)

To come up with this tab I watched some of the cover by 'Dragon2712' on youtube so he
deserves some credit for this. Couldn't get the exact notes because of the video quality
but it gave me enough of an idea that it wouldn't feel right not mentioning.

I did this tab over the space of half an hour, only learning it myself about half an
hour before or during for certain parts, so there are bound to be some mistakes but since
there weren't any other tabs for the acoustic version of the song I decided to upload 
regardless. Please let me know if you find any errors and I'll change them as soon as I 
get a chance.

Sandyland Chords – Public Domain

 C 
Don't build your house on the sandy land
                               G7 
Don't build it too near the shore
          C C/Bb Am7 F 
Well, it may look kind of nice buy you'll have to build it twice
           C G C 
Oh you'll have to build your house once more
 C 
You've got to build your house upon a rock,
                                    G7 
Make a good foundation on a solid spot
         C C/Bb Am7 F 
Oh, the storms may come and go
         C G C 
but the peace of God you will know

The Gentle Descent Chords – Port Blue

 Artist: Port Blue (Adam Young's awesome side project!)
Album: The Airship
Song: The Gentle Descent

This is an easy song to play, and it uses these very basic chords in standard tuning:

      G D A Em 
|e---3---2---0---0---|
|B---3---3---2---0---|
|G---0---2---2---0---|
|D---0---0---2---2---|
|A---2---x---0---2---|
|E---3---x---x---0---|

Here's the entire chord progression:

 G D  x8
 D A Em D  x2

Hope this tab helps.

Glory Tabs by Planetshakers

 Planetshakers : Glory Tab with Chords
Tuning: Standard (E, A, D, G, B, E)

Intro:

Guitar 1
|------------------|
|------------------|
|-/11~-------------|
|------------------|
|------------------|
|------------------|

|-------------------------------------------------------------------------|
|-------------------------------------------------------------------------|
|-11-11-11-11-11-11-11-11-10-10-10-10-10-10-10-10-11-11-11-11-11-11-11-11-|2x
|-11-11-11-11-11-11-11-11-11-11-11-11-11-11-11-11-9--9--9--9--9--9--9--9--|
|-------------------------------------------------------------------------|
|-------------------------------------------------------------------------|

Verse:
|------------------|
|-----------///7---|
|-----------///6---|
|------------- = --|
|------------------|
|------------------|

Refrain 1
  PM--------------------------------------------------------------|
|-------------------------------------------------------------------|
|-------------------------------------------------------------------|
|----------8-8-8-10-10--11-11-11-10-10-10-----------------------8-8-|
|-11-11-11--------------------------------11-11--9-9-9-11-11-11-----|
|-------------------------------------------------------------------|
|-------------------------------------------------------------------|


|----------------------|
|-11-11-11-9-9-9-------|
|----------------11-11-|
|----------------------|
|----------------------|
|----------------------|

                                          PM----------------------|
|-------------------------------------------------------------------|
|-------------------------------------------------------------------|
|----------8-8-8-10-10--11-11-11-10-10-10-----------------------8-8-|
|-11-11-11--------------------------------11-11--9-9-9-11-11-11-----|
|-------------------------------------------------------------------|
|-------------------------------------------------------------------|

|-------------------9~-|
|-11-11-11-12-12-12----|
|----------------------|
|----------------------|
|----------------------|
|----------------------|

Chorus
  F# B  C#   Ebm    B
|----------------------|
|----------------------|
|----4--6--x-88---x-44-|
|-4--4--6--x-88---x-44-|
|-4--2--4--x-66---x-22-|
|-2--------------------|

  B               C#   Ebm
|--------------------------|
|--------------------------|
|-4---------------6-6--8-8-|
|-4--x-4-x-4-x-4--6-6--8-8-|
|-2--x-2-x-2-x-2--4-4--6-6-|
|--------------------------|

  F# B  C#   Ebm    B >>>>>>> F#, F# - B - C# - Ebm, B
|----------------------|
|----------------------|
|----4--6--x-88---x-44-|
|-4--4--6--x-88---x-44-|
|-4--2--4--x-66---x-22-|
|-2--------------------|

Repeat Verse,

Refrain 2
  PM--------------------------------------------------------------|
|-------------------------------------------------------------------|
|-------------------------------------------------------------------|
|----------8-8-8-10-10--11-11-11-10-10-10-----------------------8-8-|
|-11-11-11--------------------------------11-11--9-9-9-11-11-11-----|
|-------------------------------------------------------------------|
|-------------------------------------------------------------------|


|----------------------|
|-11-11-11-9-9-9-------|
|----------------11-11-|
|----------------------|
|----------------------|
|----------------------| Do it two times, then in third time Don't Palm Mute

then it is the fourth Time
|-------------------------------------------------------------------|
|---------------------------------------------------------------11~-|
|----------8-8-8-10-10--11-11-11-10-10-10-------11-11-11-11-11------|
|-11-11-11--------------------------------11-11---------------------|
|-------------------------------------------------------------------|
|-------------------------------------------------------------------|

Go to Chorus

Bridge