Month: August 2013

I Like Too Sing Rock And Roll Tabs by Washya

 -----------------------------------------------------------------------------
              I Like Too Sing Rock And Roll - Washya 
-----------------------------------------------------------------------------
Tuning: Drop D (DADGBE)
Intro 
E|------------------------------------------------------|
B|------------------------------------------------------|
G|------------------------------------------------------|
D|-------------------------5p3---3----------------------|
A|-3h5---3h5---3h5-------5-----5-----333333-6666-55-3-0-|
D|-----0-----0-----0-3h5-----------0-333333-6666-55-3-0-|
PM     *     *     * ***           * 

Verses
E|--------------------------|
B|--------------------------|
G|--------------------------|
D|--------------------------|
A|-3-5--5-6--3333-6-666-5-3-|
D|-3-5--5-6-/3333-6-666-5-3-|
   ^ ^  ^ ^ 
     Hold

Chorus
E|----------------------------------------------------------------|
B|----------------------------------------------------------------|
G|----------------------------------------------------------------|
D|-------6--------------6--------------6--------------------------|
A|---3h5---3h5-5555-3h5---3h5-3333-3h5---3h5-1111/3333-5555-55-55-|
D|-0-----------5555-----------3333-----------1111/3333-5555-55-55-|
PM *                                                   **** ** ** 

Solo
E|----------------------------------------------------------------|
B|----------------------------------------------------------------|
G|----------------------------------3---5-------------------------|
D|---/6p5p3---3------------/6p5p3h5---5----------/6p5p3-----------|
A|----------5---5-3-------------------------------------5h6p5\3~~-|
D|-3----------------0000-3----------------0000-3------------------|
PM *                **** *                **** * 

Intro 
E|------------------------------------------------------|
B|------------------------------------------------------|
G|------------------------------------------------------|
D|-------------------------5p3---3----------------------|
A|-3h5---3h5---3h5-------5-----5-----333333-6666-55-3-0-|
D|-----0-----0-----0-3h5-----------0-333333-6666-55-3-0-|
PM     *     *     * ***           * 

Verses
E|--------------------------|
B|--------------------------|
G|--------------------------|
D|--------------------------|
A|-3-5--5-6--3333-6-666-5-3-|
D|-3-5--5-6-/3333-6-666-5-3-|
   ^ ^  ^ ^ 
     Hold

Chorus
E|----------------------------------------------------------------|
B|----------------------------------------------------------------|
G|----------------------------------------------------------------|
D|-------6--------------6--------------6--------------------------|
A|---3h5---3h5-5555-3h5---3h5-3333-3h5---3h5-1111/3333-5555-55-55-|
D|-0-----------5555-----------3333-----------1111/3333-5555-55-55-|
PM *                                                   **** ** ** 

Hearsay Tabs by Washya

 -----------------------------------------------------------------------------
                       HearSay - Washya
-----------------------------------------------------------------------------
Tuning: D (DAFCGD)
Intro
D|-----------------------------------------|
A|-----------------------------------------|
F|-----------------------------------------|
C|-----------------------------------------|
G|-----------------------------------------|
D|-5-555-5-7-777-7-4-444-4-3-333-3-2-222-2-|
HM ^ ^^^ ^ ^ ^^^ ^ ^ ^^^ ^ ^ ^^^ ^ ^ ^^^ ^  

Part 2 (Verses)
D|-----------------------------------------------------|
A|-----------------------------------------------------|
F|-----------------------------------------------------|
C|-----------------------------------------------------|
G|-6----4----6----4----6---6---6----4----6----4----653-|
D|-4-00-2-00-4-00-2-00-4-0-4-0-4-00-2-00-4-00-2-00-431-|
PM   **   **   **   **   *   *   **   **   **   ** 

Chorus
D|--------------------------------------------------------|
A|--------------------------------------------------------|
F|--------------------------------------------------------|
C|------------------6---6---8---8-------------------------|
G|-6666666-44444444-4-6-4-6-6-8-6-888888-6666666/10-9-8-7-|
D|-4444444-22222222---4---4---6---666666-4444444/8--7-5-4-|
PM ******* ******** * * * * * * * 

Douse The Fire Tabs by Washya

 -----------------------------------------------------------------------------
                   Douse The Fire - Washya
-----------------------------------------------------------------------------
Tuning: Drop D (EBGDAD)
Intro
E|-------------------------------------------------------------------------|
B|-------------------------------------------------------------------------|
G|-----------------------------------------------------------------6h7p6---|
D|--------------------------7\6-6h7p6------------------------------------7-|
A|--------------------------5\5-------7\\----------------------------------|
D|-0000-00-0-0--0000-00-0-0---------------0000-00-0-0--0000-00-0-0---------|
PM **** ** * *  **** ** * *               **** ** * *  **** ** * *        

E|-----------------------------------------------------------------------|
B|-----------------------------------------------------------------------|
G|-----------------------------------------------------------------------|
D|--------------------------8\7-7h8p7---10p8-----------------12\10\9-----|
A|--------------------------6\6-------8------7\\-------------10\8\-7-543-|
D|-0000-00-0-0--0000-00-0-0----------------------0000-00-0-0---------543-|
PM **** ** * *  **** ** * *                      **** ** * * 

Verses
E|----------------------------------------------------------|
B|----------------------------------------------------------|
G|--------------------------------------/11111111\9999------|
D|--------7-------7\6-------6/9-------7---------------------|
A|--------5-------5\4-------4/7-------5-/9-9-9-9-\7777-5555-|
D|-000000---00000-----00000-----00000------------------5555-|
PM ******   *****     *****     *****                  **** 

Chorus
E|------------------------------------------------------------------|
B|------------------------------------------------------------------|
G|-----6/99-9-9-----9/10-10/12-9/10-10/12----------------/777\333/5-|
D|---------------------------------------------2----3/5\3-----------|
A|-000-4/77-7-7-000-7/8--8/10--7/8--8/10-000-1-0-1-/1/3\1/555\111/3-|
D|-000----------000----------------------000-1---1------------------|
PM ***          ***                      *** *   * 

Tiderays Tabs by Volcano Choir

 -------------------------------------------------------------------------------
                             TIDERAYS - Volcano Choir
-------------------------------------------------------------------------------
Tabbed by: Tom Hill
E-mail: tom-hill95@hotmail.co.uk

This is a lovely riff from a great song on a superb album.

There are a few bits that I missed out (the chorus and outro), but here's a start. If 
anyone can work them out, please do.

Listen out for what note the riff ends on each time.

Tuning: Standard

The riff sometimes ends on a C#, as shown below...

e|-----------------------------------------------------------------------------|
B|-----------------------9-12--------------------------------------------------|
G|-----------------8-11----9-------9-8-9-8\6-----------------------------------|
D|------9/11-9-11-------------9-9----------------------------------------------|
A|-----------------------------------------------------------------------------|
E|----7------------------------------------------------------------------------|

Or it ends on a B...

e|-----------------------------------------------------------------------------|
B|-----------------------9-12--------------------------------------------------|
G|-----------------8-11----9-------9-8-9-8-------------------------------------|
D|------9/11-9-11-------------9-9----------9-----------------------------------|
A|-----------------------------------------------------------------------------|
E|----7------------------------------------------------------------------------|


************************************

| /   slide up
| \   slide down
| h   hammer-on
| p   pull-off
| ~   vibrato
| +   harmonic
| x   Mute note
| b   Bend
| pb  Pre-bend
| br  Bend release
| pbr Pre-bend release
| brb Bend release bend

************************************

Cape Of Our Hero Tabs by Volbeat V2

 Cape Of Our Hero

Tuning: D G C F A D

Intro Gtr1

|---------------------------------------2------------------|   
|----7---7~--7-8-7-5-5h7-5~--5-3-2--2h3---2-2-2~--3-3p2-3~-|
|-/7---9---------------------------------------------------|
|----------------------------------------------------------|
|----------------------------------------------------------|
|----------------------------------------------------------|

|---------------------------------------------------------------|   
|-/7~--5-3-3h5~--3-2-2h3~--3-5-5h7-5--3h5-3~--3-3-3-5-3--3h5-3~-|
|---------------------------------------------------------------|
|---------------------------------------------------------------|
|---------------------------------------------------------------|
|---------------------------------------------------------------|

Gtr2 

|----------------------|
|----------------------|
|----------------------|
|-7--------------------|
|-5--5-5--7--4-4444444-|
|----3-3--5--2-2222222-|
PM             -------

|---------------------------------------------------------|  
|---------------------------------------------------------|
|---------------------------------------------------------|
|-7-77777-77777-------------------------------------------|
|-5-55555-55555-5-55555-55555-7-77777-77777-4-44444-44444-|
|---------------3-33333-33333-5-55555-55555-2-22222-22222-|

|-----------------------------------|   
|-----------------------------------|
|-----------------------------------|
|-7--7-7----------------------7--77-|
|-5--5-5-7--7-7-9--9-9-5--5-5-5--55-|
|--------5--5-5-7--7-7-3--3-3-------|

Verse

|---------------------------------------------------------------------|
|---------------------------------------------------------------------|
|---------------------------------------------------------------------|
|-7777777777777777----------------------------------------------------|
|-5555555555555555-5555555555555555-2222222222222222-7777777777777777-|
|------------------3333333333333333-0000000000000000-5555555555555555-|
PM---------------- ---------------- ---------------- ----------------

Pre-Chorus

|---------------------|   
|---------------------|
|---------------------|
|---------------------|
|-5-5555555-7-7777777-|
|-3-3333333-5-5555555-|
PM  -------   -------

Chorus Gtr2

|---------------------------------------------------------|  
|---------------------------------------------------------|
|---------------------------------------------------------|
|-7-77777-77777-------------------------------------------|
|-5-55555-55555-5-55555-55555-2-22222-22222-7-77777-77777-|
|---------------3-33333-33333-0-00000-00000-5-55555-55555-|

Gtr1 (clean)

|--------------------------------------------------------------------|   
|---7---7-8-7---7----7---8-7---7----8---10-8---8----7-8-7---7-8-8-7~-|
|-7---7-------7----7---7-----7----7---7------7----9-------9----------|
|--------------------------------------------------------------------|
|--------------------------------------------------------------------|
|--------------------------------------------------------------------|

Bridge Gtr2

|--------------------------------------------|   
|--------------------------------------------|
|--------------------------------------------|
|-----------------------7~-------------------|
|-9~--9\5~--5-2~--7~--7-5~------/9-9~-5h7-4~-|
|-7~--7\3~--3-0~--5~--5-----5h7--------------|

Gtr1 (clean)

|--------------------|-------------|   
|-8-7---------8-7----|------8-7----|
|-----7~--9-7-----7~-|-9-7~-----6~-|
|--------------------|-------------|
|--------------------|-------------|
|--------------------|-------------|

Bridge-Verse

|-------------------------------------------------------------------| 
|-------------------------------------------------------------------|
|-------------------------------------------------------------------|
|-------------

Bitte Bleib Nicht Wenn Du Gehst Chords – Virginia Jetzt

 Virginia Jetzt - Bitte bleib nicht wenn du gehst
by: ja89
Tuning: Standard

 Em Am 
Da sind so Gedanken, die mich nicht verlassen
 Em Am 
Die kreisen mich ein und halten mich fest
 G C 
Und alles nur, weil niemand loslässt
 G C 
Alles nur, weil niemand loslässt
 Em Am 
Und wie ich mich morgens dabei ertappe
 Em Am 
Dass ich beim Aufstehen ganz leise bin
Damit du nicht aufwachst
 G C 
Obwohl du längst nicht mehr da bist
 G C 
Und der Platz neben mir leer ist
Und deshalb
 Em Am 
Bitte bleib nicht, bitte bleib nicht
 D G 
Wenn du gehst
 Em Am 
Bitte bleib nicht, bitte bleib nicht
 D G 
Wenn du gehst

 Em Am Em Am 


Eine Sprache für dich und für das, was du bist
Hab ich immer gesucht, das war immer mein Ziel
Ich gebe immer zuwenig und will immer zuviel
Ich gebe immer zuwenig und will immer zuviel
Und deshalb

Bitte bleib nicht, bitte bleib nicht
Wenn du gehst
Bitte bleib nicht, bitte bleib nicht
Wenn du gehst

Und dies als Versuch, uns zu begreifen
Damit nicht das letzte istWas von mir bleibt
Dir zu sagen es tut mir leid
Dir zu sagen es tut mir leid

 D Am 
Denn das schlimmste, was es gibt
                                D 
Ist nicht, dass man sich trennt,
                Am C 
Sondern sich trennt, obwohl man sich liebt

 Em Am ..

Und deshalb
Bitte bleib nicht, bitte bleib nicht
Wenn du gehst
Bitte bleib nicht, bitte bleib nicht
Wenn du gehst

Sweethome Under White Clouds Tabs by Virgin Prunes

 Virgin Prunes
Sweethome Under White Clouds
...If I die, I die
Transcribed by: Tom Quinn

Band website:
http://www.virginprunes.com/

This is another easy one.  The album version is much simpler than the live version 
(which adds a guitar part in the beginning of the song), so I'm transcribing both.  Feel free 
to e-mail me (M0L3CH@yahoo.com) with any corrections.  Enjoy ;)

Tuning: Standard (E A D G B e)

INTRO RIFF A (LIVE)                                                  Repeat
e|------------------------------------------------------------------------||
B|-----------------------------------------------------------------------o||
G|--9-9------9-9------9-9------9-9------9-9------9-9------9-9------9--9---||
D|--9-9------9-9------9-9------9-9------9-9------9-9------9-9------9--9---||
A|--7-7------7-7------7-7------7-7------7-7------7-7------7-7------7--7--o||
E|------------------------------------------------------------------------||


INTRO RIFF B (LIVE)
e|-------------------------------------------------------8-7~\x--||
B|-------------------------------------------------------8-7~\x--||
G|--9-9------9-9------9-9------9-9------9-9------7-/-9---9-8~\x--||
D|--9-9------9-9------9-9------9-9------9-9------7-/-9-----------||
A|--7-7------7-7------7-7------7-7------7-7------5-/-7-----------||
E|---------------------------------------------------------------||


MELODY
e|--------------------------------------------------------------------||
B|-------------------------------------------------------------------o||
G|--9-9-9-9---------9-9-9-9---------9-9-9-9---------9-9-9-9-----------||
D|----------9-9-9-9---------9-9-9-9---------9-9-9-9---------9-9-9-9---||
A|-------------------------------------------------------------------o||
E|--------------------------------------------------------------------||
    m m m m m m m m m m m m m m m m m m m m m m m m m m m m m m m m

The lyrics are all online, and mostly correct.  Have fun.


Key:

 m = Palm mute
 x = Dead note
 ~ = Vibrato
 / = Slide up
 \ = Slide down

Pagan Lovesong Tabs by Virgin Prunes

 Virgin Prunes
Pagan Lovesong
...If I die, I die
Transcribed by: Tom Quinn

Band website:
http://www.virginprunes.com/

This is an easy one, just listen to the track to get a feel for the rhythm.  The album 
and live versions are arranged differently, but the riffs themselves don't change.  Feel 
free to e-mail me (M0L3CH@yahoo.com) with any corrections.  Enjoy ;)

Tuning: Standard (E A D G B e)

VERSE/CHORUS RIFF                                                          Repeat
e|------------------------------------------------------------------------------||
B|-----------------------------------------------------------------------------o||
G|------------------------------------------------------------------------------||
D|------------------------------------------------------------------------------||
A|--7/9-9-9-9---9-9---7/9-9-9-7---6-7/9---7/9-9-9-9---9-9---7/9-9-9-7---6-7/9--o||
E|------------------------------------------------------------------------------||


PRECHORUS/CHORUS RIFF A
e|-----------------------------------------------------------------------------||
B|-----14~-----13~-----14--------------------14~-----13~-----14----------------||
G|--11------11------11----11~--13~--14~---11------11------11----11~--13~--14~--||
D|-----------------------------------------------------------------------------||
A|-----------------------------------------------------------------------------||
E|-----------------------------------------------------------------------------||


PRECHORUS/CHORUS RIFF B
e|-------------------------------------------------------------||
B|-----14~-----13~-----14--------------------14~-----14~-------||
G|--11------11------11----11~--13~--14~---11------11------11~--||
D|-------------------------------------------------------------||
A|-------------------------------------------------------------||
E|-------------------------------------------------------------||


POST-CHORUS
e|-------------------------------------------||
B|-------------------------------------------||
G|-------------------------------------------||
D|-------------------------------------------||
A|--7/9-10~--10\9-9~\7~--7/9-10~-10\9-9~\7~--||
E|-------------------------------------------||


POST-CHORUS/PRE-VERSE
e|----------------------------------------------------------------------||
B|----------------------------------------------------------------------||
G|----------------------------------------------------------------------||
D|----------------------------------------------------------------------||
A|--9-9-9-9-9-9-9-9-9-9-9-9-9-9-9-9-9-9-9-9-9-9-9-9-9-9-9-9-9-9-9-9\(0)-||
E|----------------------------------------------------------------------||


The lyrics are all online, and mostly correct.  Have fun.


Key:

 ~ = Vibrato
 / = Slide up
 \ = Slide down

Vida Boa Chords – Victor E Leo

 Tom:  F# 

Intro:  F# 


E|-----------------|
B|--6----7----9----|
G|-----------------|
D|-----------------|
A|--4----6----8----|
E|-----------------|


  F# 
Moro num lugar
                  C# 
Numa casinha inocente do sertão
                 D#m 
De fogo baixo aceso no fogão
          G#m C# 
Fogão à lenha ai ai
  F# 
Tenho tudo aqui
                   C# 
Umas vaquinha leiteira, um burro bão
                D#m 
Uma baixada ribeira, um violão
           G#m C# 
E umas galinha ai ai

  D#m 
Tenho no quintal
             Bbm 
Uns pé de fruta e de flor
           G#m 
E no meu peito por amor
             C# 
Plantei alguém / Plantei alguém

Refrão:

   F# 
Que vida boa
               C# 
Uôu uôu uôu que vida boa
         D#m 
Sapo caiu na lagoa
              G#m C# 
Sou eu no caminho do meu sertão   (2x)

  F# 
Vez e outra vou
                  C# 
Na venda do vilarejo pra comprar
                             D#m 
Sal grosso, cravo e outras coisa que fartar
          G#m 
Marvada pinga ai ai
  F# 
Pego o meu burrão
                     C# 
Faço na estrada a poeira levantar
                        D#m 
Qualquer tristeza que for não vai passar
          G#m C# 
Do mata-burro ai ai
  D#m 
Galopando vou
            Bbm 
Depois da curva tem alguém
            G#m 
Que chamo sempre de "meu bem”
           C# 
a me esperar / a me esperar

(Refrão 2x)

Freedom tab Vra Cruz

 #----------------------------------PLEASE NOTE---------------------------------#
#This file is the author's own work and represents their interpretation of the #
#song. You may only use this file for private study, scholarship, or research. #
#------------------------------------------------------------------------------##

Verra Cruz - Freedom
====================
by Soeren Alexnat

Tuning: E A D G B E


  Moderate Rock Q=86

Intro:
======
  
  |-3-| |-3-| |-3-| |-3-|   |-3-| |-3-| |-3-| |-3-|   |-3-| |-3-| |-3-| |-3-|
  E E E E E E E E E E E E   E E E E E E E E E E E E   E E E E E E E E E E E E
|-------------------------|-------------------------|--------------------------|
|-------------------------|-------------------------|--------------------------|
|-------------------------|---------------7-7-7-----|--------------------------|
|-------------------------|---------------7-7-7-7-7-|--------------------------|
|-7-8-9-7-8-9-7-8-9-7-8-9-|-7-8-9-7-8-9---------7-7-|-7-8-9-7-8-9-7-8-9-7-8-9--|
|-7-7-7-7-7-7-7-7-7-7-7-7-|-7-7-7-7-7-7-------------|-7-7-7-7-7-7-7-7-7-7-7-7--|


  |-3-| |-3-| |--3---| |-3--|         |-3-| |-3-|           |--3---| |-3-|
  E E E E E E E    E E E E  E   Q  Q  E E E E E E     Q  Q  E E    E E E E
|-----------------------------|---------------------|-------------------------|
|-------------9b10r9---9------|----8----------------|----8--------------------|
|-------------9b10r9-7-9-7p---|----7----------------|----7--------------------|
|---------------------------9-|----6----------------|----6--------------------|
|-7-8-9-7-8-9-----------------|-------------5-------|-------7-5tr7---5--------|
|-7-7-7-7-7-7-----------------|-0-----5-6-7---7-5b6-|-0------------7---7-5b6--|


        |-3-| |-3-|   |-3-| |-3-| |-3-| |-3-|
  Q  Q  E E E E E E   E E E E E E E E E E E E
|-------------------|----------------------------||
|----8--------------|----------------------------||
|----7--------------|----------------------------||
|----6--------------|----------------------------||
|-------------5-6---|-5-6---5--------------------||
|-0-----5-6-7-----7-|-----7---6-7-5-6-7-3-4-5----||


Verse:
======
            |-3-|               |-3-|               |-3-|
    Q  Q  S E E E +E.   Q  Q  S E E E +E.   Q  Q  S E E E +E.
||----------3-3-------|---------3-3-------|---------3-3----------|
||o---------3-3-3-(3)-|---------3-3-3-(3)-|---------3-3-3-(3)----|
||----------0-0-2-(2)-|---------0-0-2-(2)-|---------0-0-2-(2)----|
||----------0-0-0-(0)-|---------0-0-0-(0)-|---------0-0-0-(0)----|
||o-2-----------------|-2-----------------|-2--------------------|
||--0-----------------|-0-----------------|-0--------------------|


        |--3---| |-3-|
  Q  Q  E E    E E E E
|-------------------------||
|------------------------o||
|-------------------------||
|-------------------------||
|-2-----7-5tr7---5-------o||
|-0------------7---7-5b6--||


PreChorus:
==========

  |-3-| |-3-| |-3-| |-3-|   |-3-| |-3-| |-3-| |-3-|   |-3-| |-3-| |-3-| |-3-|
  E E E E E E E E E E E E   E E E E E E E E E E E E   E E E E E E E E E E E E
|-------------------------|-------------------------|--------------------------|
|-------------------------|-------------------------|--------------------------|
|-------------------------|---------------7-7-7-----|--------------------------|
|-------------------------|---------------7-7-7-7-7-|--------------------------|
|-7-8-9-7-8-9-7-8-9-7-8-9-|-7-8-9-7-8-9---------7-7-|-7-8-9-7-8-9-7-8-9-7-8-9--|
|-7-7-7-7-7-7-7-7-7-7-7-7-|-7-7-7-7-7-7-------------|-7-7-7-7-7-7-7-7-7-7-7-7--|


  |-3-| |-3-| |-3-| |-3-|   |-3-| |-3-| |-3-| |-3-|   |-3-| |-3-| |-3-| |-3-|
  E E E E E E E E E E E E   E E E E E E E E E E E E   E E E E E E E E E E E E
|-------------------------|-------------------------|--------------------------|
|-------------------------|-------------------------|--------------------------|
|---------------7-7-7-----|----

Pink Stars And Magazines Chords – Useless Id V2

 Useless ID
Pink Stars And Magazines
Redemption
2004 Kung Fu Records
Submitted by: jeremyunderground41@yahoo.com

Key:  D 

Tuning: Standard EADGBe

Chords used:
 D  -   xx0232
 A  -   x02220
 Bm  -  x24432
 G  -   320033
 Bb  -  x13331
 F#m  - 244222
 D7  -  xx0212


Intro: 1-2-3-4!!!
 D - Bm - Bb - G - x4


Verse 1:
 D Bm Bb G 
  Pink stars and magazines
 D Bm Bb G 
  your latest is-sue
 D Bm Bb 
  save me the drama 
 G D Bm Bb G 
queen for one day
 D Bm Bb G 
  tattoo my name into 
 D Bm Bb G 
  your heart and smile
 D Bm Bb G D Bm Bb -- 
  obsession is your only way


Chorus 1:
 G A 
  now that i threw all
    D Bm 
my medicine away
     G 
but i'll never knock 
         A D Bm Bb G D - Bm - Bb - G -
on your door again


Verse 2:
 D Bm Bb G 
  these rotting butterflies
 D Bm Bb G 
  dwell in your sto-mach
 D Bm Bb 
when it comes to you
   G D Bm Bb G 
i have no conscience
        D 
you're living your 
 Bm Bb G 
life in a lie
        D 
you're living your 
 Bm Bb G 
life in a lie
 D Bm 
this sweet candy is
Bb    G        D Bm  drumbeats--
dirty from the inside


Chorus 2:
 G A 
  now that i threw all
    D Bm 
my medicine away
     G 
but i'll never knock 
         A D D7 
on your door again
 G A 
  the damage is done we'll
 D Bm G 
never be a part of anything
     G 
but i'll never knock 
         A D F#m G Bb 
on your door again
  D F#m G Bb D F#m G Bb D F#m G Bb 
again


Guitar Solo:  D - F#m - G - Bb - x4


Chorus 3:
 G A 
  now that i threw all
    D Bm 
my medicine away
     G 
but i'll never knock 
         A D (hold) drumbeats  D7 
on your door again
 G A 
  the damage is done we'll
 D D7 Bm A G 
never be a part of anything
 Bb D 
anything at all don't
 F#m G Bb D 
follow me around at all
       F#m G Bb D 
don't follow me around at all
 F#m G Bb D F#m G (hold)  D (hold)
follow me around

Sleeper Chords – Ty Segall

 Intro:  Dm 

Verse:
  Dm F C G  
Oh sleeper, my dreamer 
  Bm F C G 
I sleep, I dream for you 
  Dm F C G  
My dreamer, my sleeper 
  Bm F C G 
My dream's dream come true 

Chorus:
 Dm G 
 A sweet, sweet love 
 Dm G            
 I dream for you
            C  
From your baby
 G C G  
Far up there 

 Dm G 
 I dream, sweet love
 Dm G  
 I dream for you
            C  
From your baby,
 G C G  
Far away 

Bridge:
 C D C 
  And I wanna sleep all day 
             D G      
And I wanna go away 
 Dm G C 
  All day I want to sleep 
    G Dm G 
All day with you

 Dm G   x3

Verse:
Oh deeper, fall deeper
Into sleep, my sleep for two
I will be there, with my sleeper
Dreaming beneath the moon

Chorus:
Ah sweet, sweet love 
I dream for you 
From your baby 
Far up there 

A dream sweet love 
A dream for you 
From your baby, 
Far up there   x3

 C 
Baby
  G C G 
Far up there
 C G C G F D 


Pretty sure the lyrics are slightly off in parts, but it's close enough.

Parallel Lines Chords – Travis

 Parallel Lines
by Travis
on Where You Stand (Deluxe Version) (2013)



Chords Used
 A C#m Bm B E D 

No Capo

Listen to song for proper timing


 A  / / /  C#m  / / /
 A  / / /  C#m  / / 

           A 
all these monochrome days
               C#m 
are making me blue
          Bm 
and it's on these days my mind strays
    B 
to thoughts of you
        Bm E 
do you think of me too?
   Bm E 
I think me and you
               A D  
are just like parallel parallel parallel parallel parallel lines
            A D 
we're just parallel parallel parallel parallel parallel lines

          A 
a silver telephone rings
              C#m 
a picture of you
         Bm 
and I'm taken away from this humdrum day
    B 
to someplace new
     Bm E 
but I don't hear you
      Bm E 
I'll never get through
           A D 
just like parallel parallel parallel parallel parallel line
            A D 
we're just parallel parallel parallel parallel parallel lines
           A C#m 
just like parallel lines
            A E 
yours will never meet mine

 A 
ooooooh
         C#m 
nah nah nah nah nah
 A 
ooooooh
         C#m 
nah nah nah nah nah
         D E 
nah nah nah nah nah
         D E 
nah nah nah nah nah

         ( A )                                 ( D )
just like parallel parallel parallel parallel parallel lines
      ( A )                                 ( D )
we are parallel parallel parallel parallel parallel lines
           A D 
just like parallel parallel parallel parallel parallel lines
        A D 
we are parallel parallel parallel parallel parallel lines

 A D 
ahhhhhhhhhhhhhhhhhahhahhhhh


repeat and fade until end





I'm not sure if this is all correct, please leave any suggestions or corrections. Thanks

Dont Let The Sunshine Fool Ya Chords – Townes Van Zandt

 Written by Guy Clark covered on The Late Great Townes Van Zandt

 B 
Me & this friend named streetlife brown
          A E 
We got a bottle of red and walked uptown
     B 
One hand on the jug and one on time
           A E 
He said I bet you a dollar against this next line, I said

 E B 
 Don't let the sunshine fool ya
 A E 
 Don't let the bluebirds tool ya
 E B 
 Don't let the women do ya
 A E 
Put your hand in mine

oh advice is fine if you've got a mind
To listen to the end that's got the time
But the muse'll get ya if you don't watch out
He's equipped to know what it's all about

Don't let the sunshine fool ya
Don't let the bluebirds tool ya
Don't let the women do ya
Put your hand in mine

Fanon street in the afternoon
An easy way to get out of tune
But the hard soap salesman he said no dice
When I asked politely for a better price

Don't let that sunshine fool ya
Don't let them bluebirds tool ya
Don't let the women do ya
Put your hand in mine

Well here's a song for you child of mine
I hope you make it through this time
Get yourself a piece of that rainbow pie
No reason in the world that you can't get by

Don't let the sunshine fool ya
Don't let the bluebirds tool ya
Don't let the women do ya
Put your hand in mine

Don't let the sunshine fool ya
Don't let the bluebirds tool ya
Don't let the women do ya
Put your hand in mine

Friendly Fire Chords – Toad The Wet Sprocket

 Friendly Fire (Kickstarter Bonus Version)
Toad The Wet Sprocket
(From the CD New Constellation to be released Oct 2013)

|  F#m  |  F#m  |  F#m  |  F#m  |  F#m  |  A  |  Bm  |  F#m  |  F#m  |  A  |  Bm  |  F#m  |
 (muted)                 (band in)

 F#m A 
Not so long ago
 Bm F#m 
Down from the trees and into the gutter
 F#m A 
Naked, beautiful
 Bm F#m 
Feet on the earth and heart all aflutter
 F#m A 
Set up from the dawn
 Bm F#m 
Eden was a trap and the apple was a con
          F#m A 
From the tilt of the hips, the grasp of the hand
     Bm F#m 
The word is the seed of the soul of the man
  E D F#m E D 
(Friendly fire) Can't take one life for another (Friendly fire)

|  F#m  |  F#m  |

 F#m A 
Know your history
    Bm F#m 
We don't want to learn but we want to believe
    F#m A 
We seek out enemies
 Bm F#m 
Scared to the core as we arm to the teeth
  E D F#m E D 
(Friendly fire) Can't tear one life from another (Friendly fire)

           A E 
We're not separate (separate), no different (different)
    D 
We came from the earth not the firmament
           A E                          
We're not separate (separate), no different (different)
|  D C#m  |       Bm Bm   
  Now        Yeah we're still animals

|  F#m  |  A  |  Bm  |  F#m  |  F#m  |  A  |  Bm  |  F#m  |  E D  |  F#m  |  F#m  |

 F#m A    
Get up off your knees
           Bm F#m    
And don't bow your head any more
 F#m      n/ C 
Raise your voice to sing
n/ C 
One song true enough for us all

           A E 
We're not separate (separate), no different (different)
    D 
We came from the dirt not the firmament
           A E                          
We're not separate (separate), no different (different)
             D C#m Bm          
We're still animals, just animals

           A E 
We're not separate (separate), no different (different)
       D 
We're bound to the earth like a sacrament
           A E 
We're not separate (separate), no different (different)
|  D C#m  |              Bm        | F#m          |
  Now        We're still beautiful -- animals

|  A  |  Bm  |  F#m  |  F#m  |  A  |  Bm  |  F#m  |  F#m  |  F#m  |  F#m  |  F#m  |

Charted by Dexex

He Doesnt Know Chords – Tina Dico

 D A G Bm     
If you ever pass by where I used to live
     A G Bm 
And should you bump in to the man I was with
 A G F#m A 
Back when I didn't know what to believe
    G Bm 
Please, will you tell him from me

        D A G Bm   
That I loved him with every beat of my heart
     A G D A 
I'd tremble with longing when we were apart
         G F#m G 
Oh, I'd ache to pull him in close
                  Bm 
I don't think he knows


 Em G Bm 
Ohh, ohh ... ohhh

     D A G Bm   
The last thing I heard he was losing his job
   A G Bm  
I guess they'd found out that he rarely turned up
    A G F#m A   
He hated it there only stayed for me
     G Bm 
Please, will you make him believe

      D A G Bm 
That I always thought you should follow your dreams
 A G D A     
However hard and uncertain it seems
          G F#m G 
I'd have loved him whatever he chose
                  Bm 
I don't think he knows

 Em G Bm  
Ohh ohh ohhh
 A G Bm 
Ohh ohh ohhh


   D A G Bm 
Our lives grew apart, it's been just over a year
     A G Bm 
For reasons I can't really tell you about here
 A G F#m A 
Love wasn't nearly enough in the end
    G Bm 
Please, will you tell him again
    
      D A G Bm 
That I hurt myself more than I ever hurt him
   A G D A 
I wasn't as distant and cold as I seemed
       G F#m G 
I was lost all the way into my bones
                  Bm 
I don't think he knows

 Em G Bm 
Ohh ohh ohhh
 A G Bm 
Ohh ohh ohhh
 A G F#m G 
Ohh ohh ohhh ohhh

          D A G Bm 
When the dust had settled he moved on as well
    A G Bm 
He found a new girl that he loved, I could tell
        A G F#m A 
And my mind started wandering jealously
        G Bm 
Please, will you ask him from me
 
    D A G Bm 
If really he thought that I was the one
    A G D A 
Or were we just sharing some time on the run
        G F#m G 
Did he love me with peace and with hope
                Bm 
I don't really know...

 Em G Bm 
Ohh ohh ohhh
 A G Bm 
Ohh ohh ohhh
 A G F#m G F#m G 
Ohh ohh ohhh ohhh   Ohhh    Ohhhh

On Top Of The World Chords – Tim Mcmorris

 x4  Hm A Hm 
   O-oo-oo-oo-o-o-oo-o-o-o-oo-oo

 Hm                                           
I'm on top of the world and now I'm livin'
 A 
And the good just gets better, keeps on givin'
 E 
Not even close to the end, it's just beginnin'
 G 
Life is getting lighter
            A                              
While the days are getting brighter, yeah

 Hm 
And it's all good, I won't worry anymore
 A 
Took all my cares, took 'em, kicked them all, out the door
 E 
Go on and try it, come on and tell me what you're waiting for
 G A 
Move and keep on going, 'till your life is overflowing, yeah

 Hm 
I do a dance, do a dance of victory
 A 
Cause now I'm livin' good, no, I'm not livin' like used to be
 E 
Not talkin' 'bout things, talking 'bout my mind
 G A 
Now I'm free from the worries that I left behind

 Hm 
I gotta jump for joy, and shout aloud, and make a sound, oh
 A 
The world can't stop me now, no
 E 
And on the music I will ride on the beat
 G A 
Play my guitar, while I'm stompin my feet, yeah

 E 
I gotta celebrate life
 E 
And get excited about
 E 
Good times and good livin
 E 
Come on and shout it out, (HEY!)

 Hm 
Take it up, take it over, take it out of control
 A 
Today I'm freein' my soul, and now you got me singin'
 E 
Oh Oh Oh Oh Oh
 G A 
Oh Oh Oh Oh Oh Whoa

 Hm 
I'm feelin' fine, smiling big, feelin' right like I should
 A 
Life is better then good, yeah, you got me singin'
 E 
Oh Oh Oh Oh Oh
 G A 
Oh Oh Oh Oh Oh Whoa

 Hm 
I'm standing up, on top of the world tonight
 A 
And everything's working out just right
 E 
And while the world is spinning
 G 
It's a brand new beginning
          A 
I'm here finally winning (HEY!)
 Hm 
So take it up, take it over, take it out of control
 A 
Today I'm freeing my soul, and now you got me singin
 E 
Oh Oh Oh Oh Oh
 G A 
Oh Oh Oh Oh Oh Whoa

 A Hm 
Oh Oh [x2]

 Hm 
We gotta be the best, the best we can be
 A 
And though sometimes we don't wanna

Still we gotta chase our dreams
 E 
Reach up, and reach high, because we're gonna pull on through 
 G 
And give it all we got, even though it can seem so hard to

 Hm 
Catch and make happen, but we can't start slackin', come on
 A 
Do what ya gotta do to fight on
 E 
So no matter what comes your way
 G 
Nothin can ruin your day
 A 
Or even wipe your smile away

 Hm 
By the time I'm up and outta my bed
 A 
I got a hundred new ideas floatin' round in my head
 E 
With a hope for tomorrow, a dream that I can see
 G A 
Of all the awesome things, the great people we could be

 Hm 
And maybe by the music or the songs that I sing
 A 
I'll change the world with the simple message that I will bring
 E 
All I know is that it's out there, there’s more to discover
 G A 
And a lot of good things, we can learn from one another

 E 
Gotta celebrate life
And get excited about
Good times and good livin
Come on and shout it out, (HEY!)

 Hm 
Take it up, take it over, take it out of control
 A 
Today I'm f

I Saw The Light Chords – The Ryan Oreilly Band

 Band: The Ryan O'Reilly Band
Song: I Saw The Light & Elizabeth

Tuning: Standard EADGBe


I prefer to play with CAPO 2


Also, I was not able to find any kind of lyrics for this song, so I tried my best to 
understand what they are singing. Excuse my mistakes.
-------------------------------------------------------------------------------------


 G G 
I saw the light, I saw the light
 C G 
No more darkness, no more night
 G 
Now I'm so happy, no sorrow in sight
 G D G 
Praise the lord, I saw the light


 G 
I wandered so lonely, life filled with sin
    C G 
I wouldn't let my dear saviour in
 G 
Then Jesus came, like a stranger in the night
 G D G 
Praise the lord, I saw the light



 G 
I saw the light, I saw the light
 C G 
No more darkness, no more night
 G 
Now I'm so happy, no sorrow in sight
 G D G 
Praise the lord, I saw the light


 G G C 
Elizabeth's walking through the garden
 D C G 
at the morning that I come.
 G C 
Wouldn't be graving off the last
   D C G 
Suburbans hanging on my wall.
 D C G 
She's supposed for the best lines of every play,
 D C G 
Not every line but just the one.
 G C 
The winds are dancing with the trees
     D C G 
Its distance bells sing the morning song.


 D ,  G G C 
Elizabeth asked me if I know her name
   D C G 
I said I do but I never tell
 G C 
Say everything is going on around
     D C G 
and yes that's probably just as well
 D C G 
Everybody's gonna let you down
 D C G 
That's I why I shall not let them first.
 G C 
Thinks it's gonna be a long walk home tonight
 D C G 
said, we are staring at her empty purse.


 C G 
She knows every word in that country song
     A D 
She makes me sing it, she sings along
 C G 
Surrounded by the friends she thought were (...)
 A D 
singing in ghettos where I come from,
 C G 
she steals the show.


 D ,  C ,  G G C 
Elizabeth's different every time you see her
 D C G 
Changes like a russian dog
 G C 
Walks back home alone through the garden
 D C G 
As the rains begin to fall
 D C G 
Garden fence broke down last night
 D C G 
The dogs that were barking are now inside
 G C 
Travelling girl in the morning moon
      D C G 
Yeah everything's gonna be alright.


 C G 
She knows every word in that country song
     A D 
She makes me sing it, she sings along
 C G 
Surrounded by the friends she thought were (...)
 A D 
Singing in ghettos where I come from,
 C G 
She steals the show.


 D ,  C</sp

Follow Me Down Tabs by The Pretty Reckless

 FOLLOW ME DOWN
THE PRETTY RECKLESS

Tabbed By T

Any corrections or complaints to wasssup@hotmail.co.uk, my junk folder
is starting to get lonely
Tuning: Eb (eb Bb Gb Db Ab Eb)
Dont trust the rhythms ive got down, theyre most likely innaccurate.
All tabs of phrases, no timings, etc. etc.

INTRO

gtr 1
e----------------------------------------------------------------|
B----------------------------------------------------------------|
G----------------------------------------------------------------|
D----------------------------------------------------------------|
A--------------------------------------------------------7-5-8-7-|
E-0-00-0-6h7p6p0-3-0-0000-12h13p12p0-6-0-00-0-6h7p6p0-3--5-3-6-5-|

e------------------------------------------------------------------|
B------------------------------------------------------------------|
G------------------------------------------------------------------|
D------------------------------------------------------------------|
A--------------------------------------------------------2-77-2-88-|
E-0-00-0-6h7p6p0-3-0-0000-12h13p12p0-6-0-00-0-6h7p6p0-3--0-55-0-66-|
pm                                                       .    .

gtr 2
e-------------------------------------------------------------|
B-------------------------------------------------------------|
G-------------------------9h10p9p0----------------------------|
D--------8h9p8p0-5-----------------8-------8h9p8p0-5--7-5-8-7-|
A-------------------------------------------------------------|
E-0-00-0-----------0-0000------------0-00-0-------------------|
pm                     ..
e-----------------------------------------------------------|
B-----------------------------------------------------------|
G-------------------------9h10p9p0--------------------------|
D--------8h9p8p0-5-----------------8-------8h9p8p0-5---7--8-|
A-----------------------------------------------------------|
E-0-00-0-----------0-0000------------0-00-0-----------0--0--|
pm                     ..                             .  .

VERSE
e-----------------------------------------------|
B-----------------------------------------------|
G-----------------------------------------------|
D-----------------------------------------------|
A--------7/------7-----7/-------7/------7-5-8-7-|
E-0-0000---0-0000--000----0-0000---0000-5-3-6-5-|
pm. .... . . ..... ...    . .....  ....

e---------------------------------------------|
B---------------------------------------------|
G---------------------------------------------|
D---------------------------------------------|
A--------7/------7-----7/-------7/-------7--8-|
E-0-0000---0-0000--000----0-0000---0000-05-06-|
pm. .... . . ..... ... .  . .....  .... .  .

e-----------------------------------------------|
B-----------------------------------------------|
G-----------------------------------------------|
D-----------------------------------------------|
A--------7/------7-----7/-------7/------7-5-8-7-|
E-0-0000---0-0000--000----0-0000---0000-5-3-6-7-|
pm  .... . . ..... ...    . ....   ....   

e---------------------------------------------------|
B---------------------------------------------------|
G---------------------------------------------------|
D---------------------------------------10-11-12-13-|
A--------7/------7-----7/-------7/------------------|
E-0-0000---0-0000--000----0-0000---0000-12-12-12-12-|
pm  .... . . ..... ... .  . .....  .... 

the lead in the middle goes like this, think the effect is flange:
e----------------22-21-|
B----------------------|
G----------------------|
D-///19----17----------|
A-------18-------------|
E----------------------|

PRECHORUS
e---------------------------------------|
B---------------------------------------|
G---------------------------------------|
D-7-7-7-77-7-77-7-77-7-7-7-77-7-77-7-77-|
A---------------------------------------|
E-5-5-5-55-6-66-3-33-5-5-5-55-6-66-8-8

Halcyon Chords – The Paper Kites

 **This is by no means complete. These aren't the exact chords but I've tried it and it sounds
good enough for a jam session.

"Halcyon"
Tuning: Standard
Key of D

Chords:

 D  - x54x3x
 Bm7  - 224232
 G  - 35543x
 E  - x221xx

I like to play the chords palm muted, and strum accordingly during the chorus.



*Intro:

      D F#m G 

----10------9------7-------7------5----------2---------------------------------|
-------------------------------------------------------------------------------|
----9-------7------7-------7------4----------4---------------------------------|
-------------------------------------------------------------------------------|
-------------------------------------------------------------------------------|
-------------------------------------------------------------------------------|

V1:

 D 
You're free

                      F#m Bm7 
A lover sinking in the sea

      D 
And we

                          F#m Bm7 
Will let the water fill our lungs

        G 
And sleep


Chorus:

 D F#m Bm7 
Love, we go down, we go down

 D F#m Bm7 
Breathe, it's over now, over now

 E A D  
We can love, we can love

 E A -- Bm7 -- D -- G 
We can love, we can love

            G                               *Back to intro: ( D F#m Bm7 )
And the birds will sing our song in Halcyon

Verse 2:
You're free
A love is coming home to me
The sea
Will pull our bodies down into the deep

Chorus 2:
Love, we go down, we go down
Breathe, it's over now, over now
We can love, we can love
We can love, we can love
And the birds will sing out song in Halcyon
And the birds will sing out song

The birds will all sing out
The birds will all sing out
The birds will sing out song
The birds will all sing out

We can love, we can love
We can love, we can love
And the birds will sing out song in Halcyon