Month: August 2013

Children Of The Stars Chords – The Orion Experience

 G# C#m B C#m 
 Children of the Stars    u - nite
 G# A B C#m 
Don’t you be afraid to share your light
 E A B E 
Together we can burn so bright  
                    F#m B E 
That we’ll chase the shadow from the World


              E C#m 
They’ll tell you it’s all about money
         E B C#m 
They’ll tell you it’s all about fame
             E G# C#m          
You’ll spend all your life chasing diamonds and furs
                      B G# C#m 
And you’re left with a ball and a chain
          E C#m 
Now time is an infinite journey
         E B C#m 
And life is a trial by fire
        E G# C#m        
You give up your wings for material things,
 B G# C#m 
Baby, how can we get any higher?

 A F#m 
You are not alone my child
 B E 
So don’t give up the fight
 A        `             F#m 
We can shake the World awake
 B G# 
And break that spell tonight

 G# C#m B C#m 
Children of the Stars unite
 E A B C#m 
Don’t you be afraid to share your light
 G# A B E 
Together we can burn so bright

                    B E 
That we’ll chase the shadow from the World

             E C#m 
They’ll tell you that Science is fiction
            E B C#m 
And Magic is all but a lie
                 E G# C#m 
They’ll make you bow down with your eyes to the ground
                  B G# C#m 
And they won’t set you free till you die
             E C#m 
But Power, it flows through your fingers
          E B C#m 
And Lightning caresses your hair
          E G# C#m 
This world will be ours, cause we come from the Stars
                B G# C#m 
So the doubters had better beware

 A F#m 
Everything you need my child
 B E 
Is right within your sight
 A        `             F#m 
You control the universe
 B G# 
So break that spell tonight

 G# C#m B C#m 
Children of the Stars unite
 E A B C#m 
Don’t you be afraid to share your light
 G# A B E 
Together we can burn so bright
                    B E 
That we’ll chase the shadow from the World

 G# C#m B C#m 
Children of the Stars be brave
 E A B C#m G# 
Never let them doubt your heart, or how it’s made
          A B E B E 
Just let your love go Super Nova

(repeat)

Song 13 Tabs by The Greenhornes

 (/) Slide Up  (\) Slide Down  (h) Hammer On  (p) Pull Off  (b) Bend (r) Release (v) Vibrato

E|-----------------------------------|
B|-----------------------------------|
G|-----------------------------------|
D|-----------------------------------|
A|--9--7--9--4--12--12--12--9--9--5--|
E|--7--5--7--2--10--9---8---7--5--3--|



E|------------------------------------|
B|------------------------------------|
G|------------------------------------|
D|------------------------------------|
A|--12--12--12--9--9--5---------------|
E|--10--9---8---7--5--3---------------|


E|--------|
B|--------|
G|--1--2--|
D|--2--2--|
A|--2--0--|
E|--0-----|

My Sparrow Tabs by The Greenhornes

 (/) Slide Up  (\) Slide Down  (h) Hammer On  (p) Pull Off  (b) Bend (r) Release (v) Vibrato

E|----------|       These are the only chords used in the song so you figure out how it goes
B|----------|
G|--1--1h2--|
D|--2--2-2--|
A|--2--2-2--|
E|--0--0-0--|



E|--------|
B|--------|
G|--3--1--|
D|--4--2--|
A|--4--2--|
E|--2--0--|



E|-----0----------2----------4-----|
B|---------------------------------|
G|--1-----1--1h2-----2--2/4-----4--|
D|---------------------------------|
A|---------------------------------|
E|---------------------------------|

My Babys Alright Tabs by The Greenhornes

 (/) Slide Up  (\) Slide Down  (h) Hammer On  (p) Pull Off  (b) Bend (r) Release (v) Vibrato

E|-------------------------------------|
B|-------------------------------------|
G|-------------------------------------|
D|--------9--11--9-----------9--11--9--|
A|--9--9--7--7---7--9--9--9--7--7---7--|
E|--7--7------------7--7--7------------|



E|------------------|
B|------------------|
G|------------------|
D|----------9--5/6--|
A|--9--5/6--7--3-4--|
E|--7--3-4----------|

Better Off Without It Tabs by The Greenhornes

 (/) Slide Up  (\) Slide Down  (h) Hammer On  (p) Pull Off  (b) Bend (r) Release (v) Vibrato

E|-----------3--3--3--5--|
B|--1--------3--3--5--3--|
G|--0--9--7--4--5--4--4--|
D|--2--9--7--5--3--3--5--|
A|--3--7--5--5--5--5--5--|
E|-----------3--3--3--3--|



E|-----------------------|
B|-----------------------|
G|-----------------------|
D|--9--9--7-----7--------|
A|--7--7--7--7--5--5--3--|
E|--------5--5-----3--1--|

Jeuna Lai Garo Bho Chords – The Edge Band

 Artist:The Edge Band

 G ..............  D ............
Jeuna lai garo bho,
.................  G ..............
ustai jhan marna lai,
..............  D .........  G 
samjhera timilai............,
 G .................  D .............
ma mare pani timilai,
................  G  
aatma mero rahanecha,
............  D ..........  G 
sunauna timilai.............,


[CHORUS]
 G ...  C ...  D  ....  G 
mero saath nadiye pani,
mero tyaag nabujhe pani,
sochne chau timile pani,
rune chau eklai timi,

.............  Bm ...........
bhannu thyo aajai,
.........  C ..........
sacheka mitha,
.........  G ... Ccadd9  Em D  
ti bacha haru............,
...........  Bm .........
layeko tyo prem,
.........  C .........
khayeko kasam,
.........  G .........
jhuto ta haina,
.........  D .........
sunana yaha,

.........  Bm ........
sochethye ajhai,
.............  C ..............
hamro sacho prem,
..........  G .. Ccadd9  Em D  
juni juni lai............,
..........  Bm ..........
rakhne chu timro,
.........  C ............
bacha haru lai,
...........  G ..........
bhujana malai,
.........  D ...........
sunana yaha,

 G  ..............  D  ......... 
phoola samjhi timilai,
...........  G ...........
sajai rakhnechu,
............  D  .........  G 
mutu vitra timilai.....,
.............  D .............
khushi diyera timilai,
..............  G  .............. 
ansu maile piyechu,
...........  D  .......  G 
sunauna timilai......

mero saath nadiye pani,
mero tyaag nabujhe pani,
sochne chau timile pani,
rune chau eklai timi,

Home For Grave Tabs by The Devil Wears Prada

 -------------------------------------------------------------------------------
                             Home For Grave - The Devil Wears Prada
-------------------------------------------------------------------------------
Tabbed by: Moonguy16
E-mail:dmtmurata@gmail.com

Tuning: DROP A (A E A D F# B)

To make the song easier, take a look at my cover. http://www.youtube.com/watch?v=ARzvNqznmfA

Verse Riff
|----------------|--------------------------------------------------------------|
|----------------|--------------------------------------------------------------|
|---10-10-10-10-|---10-10--7--7--------------------5--h7-----=------------------|
|----------------|---------------------------5--h7------------------------------|
|---8--8--8--8---|---8--8---5--5------------------------------------------------|
|----------------|-------------------0-0--0-------------------------------------|

|-------------------|----------------------------------------------------------|
|-------------------|----------------------------------------------------------|
|----12-12-12-12---|-----------------------------------------------------------|
|-------------------|----8--8--8--8--------------------------------------------|
|----10-10-10-10---|----8--8--8--8---------------------------------------------|
|-------------------|----8--8--8--8--0-0-0-------------------------------------|

|-------------------------------------|--------------------------------------|
|-------------------------------------|--------------------------------------|
|-------------------------------------|--------------------------------------|
|-------------------------------------|--------------------------------------|
|-------------------------------------|----------12+-------------------------|
|----0--0--0---10p--0--10--12h---0---|----0-0-0-----0------------------------|

|-----------------------------------------------------------------------------|
|-----------------------------------------------------------------------------|
|-----------------------------------------------------------------------------|
|-----------------------------------------------------------------------------|
|--------------15------12----------17-----------------------------------------|
|-----0-0-0-0-----0-0-----0-0-0-0-----17--------------------------------------|

|-----------------------------------0-----------------------------------------|
|---------------10-10--------13-13-10-----------------------------------------|
|---------------10-10--------10-10-10-----------------------------------------|
|---------------12-12--------12-12-12-----------------------------------------|
|-----------------------------------------------------------------------------|
|---------0-0-----------0-0---------------------------------------------------|

REPEAT VERSE RIFF

Pre-Chorus 1 (0:42 - 0:45)
|-----------------------------------------------------------------------------------|
|-----------------------------------------------------------------------------------|
|-----7-7-7-7---7-7-----------------------------------------------------------------|
|-----7-7-7-7---7-7--0--------------------------------------------------------------|
|-----5-5-5-5---5-5--0--------------------------------------------------------------|
|---------------------0-------------------------------------------------------------|

Chorus
|-------------------------------------|----------------------------------------|
|-------------------------------------|----------------------------------------|
|-------------------------------------|----------------------------------------|
|---X--X------------------------------|----------------------------------------|
|---X--X----12--10---X-X----10--12---|--X-X-X-X--12--10--X-X-----10---5--------|
|---X--X----8---8----X-X-----8---8---|--X-X-X-X---8---8---X-X--8---------------|


|--------------------------------------

Ein Leben Ohne Dich Chords – Tele

 Song:   "Ein Leben ohne dich"
Artist: Tele
Album:  Wir brauchen nichts

http://www.telemusic.de



    C#m 
Musik aus dem Radio, es hoert auf zu regnen.
    A 
Zurueck aus den Nachrichten, raus ins Leben.
      E B            
Ein Rettungswagen vor der Haustuer und meine Augen rennen in jede Richtung.


     C#m 
Ich singe Lieder, die noch niemand kennt,
 A 
alles, was fremd ist, ist gut im Moment.
               E 
Ich nehme den ersten Bus und steige als Letzter aus.
 B 
Tausend gute Wege hier raus.


 C#m A E 
  Ein Leben ohne Dich, ist nicht gemacht fuer mich.
                                     B 
Ich laufe durch die Gegend und habe Angst, alles verschwindet um mich.
 C#m A 
   Die Lichter aus den Wohnungen,
                      E 
die Farben auf den Fotos,
                     B A 
die Sonne und der Mond.


 G#m D F#m A 
  So lange ich Dich sehen kann, bleibt alles wie es war. 
 E D A 
  So lange ich Dich sehen kann bist Du hier. 
 G#m D F#m A 
  So lange ich Dich sehen kann, bleibt alles wie es war. 
 E D A 
  Aber es wird immer weniger jeden Tag. 


     C#m 
Wie geht es Dir heute, ich hoffe besser. 
        A 
Dein Brief von vor einem Jahr kam erst gestern. 
            E B 
Triffst Du ab und zu Leute oder schliesst Du dich weg, dort wo niemand dich sucht.


   C#m 
Musik ueberall, ich hab nichts vergessen. 
      A  
Wir wollten uns treffen in einem Haus aus Treppen, 
 E B 
tagelang reden, schlafen im Stehen, alles verstanden haben, wenn wir gehen.


 C#m A E 
  Ein Leben ohne Dich, ist nicht gemacht fuer mich.
                                     B 
Ich laufe durch die Gegend und habe Angst, alles verschwindet um mich.
 C#m A 
   Die Lichter aus den Wohnungen,
                      E 
die Farben auf den Fotos,
                     B A 
die Sonne und der Mond.


 G#m D F#m A 
  So lange ich Dich sehen kann, bleibt alles wie es war. 
 E D A 
  So lange ich Dich sehen kann, bist Du hier. 
 G#m D F#m A 
  So lange ich Dich sehen kann, bleibt alles wie es war. 
 E D A 
  Aber es wird immer weniger jeden Tag.




 C#m  (x46654)
 A    (577655)
 E    (x79997)
 B    (799877)
 G#m  (466444)
 D    (x57775)
 F#m  (244222)


Sentimental Tune Chords – Tegan And Sara V3

 Intro:  C G F C 
You
                   G F 
In a simple grey coat
                   C 
In a simple white room (Oh!)
 G F C 
Now you know you know it now, and so
 G F 
Now you know you know it now
 C 
You
                 G F 
Hate the tender-hearted torch song
 C G F C 
You catch flame to my sentiment, my sentimental tune
 G F C 
Now you know you know it now, and so
 G F 
Now you know you know it now

 Am G F 
Hard-hearted, don't worry, I'm ready for a fight
 Am G F                           
Unnerved, the nerve, you're nervous, nervous that I'm right
  Am G F 
Hard-hearted, don't worry, I'm ready for a fight
 Am G F C 
Unnerved, the nerve, you're nervous, you're nervous that I'm right


 C G F C 
Now
                                   G F    
With your cause and affection on my mind
 C G F C 
I won't yield; throw caution into the blaze (Oh!)
 G F C 
Now you know you know it now, and so
 G F 
Now you know you know it now
 C 
Watch
               G F C 
With a bit of friction I'll be under your clothes
               G F C 
With a bit of focus I'll be under your skin (Oh!)
 G F C 
Now you know you know it now, and so
 G F 
Now you know you know it now

 Am G F 
Hard-hearted, don't worry, I'm ready for a fight
 Am G F                          
Unnerved, the nerve, you're nervous, nervous that I'm right
 Am G F 
Hard hearted, don't worry, I'm ready for a fight
 Am G F C 
Unnerved, the nerve, you're nervous, you're nervous that I'm right


 C G F  (x3)

 C G F C 
Oh, now you know you know it now, and so
 G F 
Now you know you know it now
 C G F C 
Oh, now you know you know it now, and so
 G F 
Now you know you know it now 

Summertime Chords – Teenage Bottlerocket

 Teenage Bottlerocket
Summertime
Freak Out
2012 Fat Wreck Chords
Submitted by: jeremyunderground41@yahoo.com

Key:  A 

Tuning: Standard EADGBe

Chords used:
 A  -    x02220
 E  -    022100
 F#m  -  244222
 D  -    xx0232
 E/G#  - 476xx


Intro: A--D-F#m-E- x2


Verse:
 A D 
Baby I'm getting sick
                      E F#m D 
of all the cold and snow
    A D 
Oh I wish there was a warmer
                     E F#m D 
place that we could go
 A D 
Maybe in California
                E F#m D 
hanging on the beach
    A D 
Or over in some desert
               E F#m D 
in the Middle East


Refrain 1:
 E 
  And Even though
that would be great
                F#m 
I think we're still 
               D 
gonna have to wait


Chorus 1:
     A E 
For summertime when 
      F#m D 
it's hot as Mexico
              A E 
We'll drive around
                  F#m 
roll the windows down
              D 
Turn up the stereo
          E     A   D F#m E A--D-F#m-E-
yeah it's summertime


(Repeat Verse)
(Repeat Refrain 1)


Chorus 2:
     A E 
For summertime when 
      F#m D 
it's hot as Mexico
              A E 
We'll drive around
                  F#m 
roll the windows down
              D 
Turn up the stereo
           E A A E/G# 
yeah it's summertime


Bridge:
 F#m 
Winter ain't the 
             D 
weather I'm wanting
         F#m 
I wanna be where 
                  D 
there's warm and sun
      E 
It's summertime


Guitar Solo: A-E-F#m-D-A-E-D--F#m-E- x2


Refrain 2:
 E 
  And Even though
that would be great
                F#m 
I think we're still 
               D 
gonna have to wait
 E 
  And Even though
that would be great
                F#m 
I think we're still 
               D 
gonna have to wait


Chorus 3:
     A E 
For summertime when 
      F#m D 
it's hot as Mexico
              A E 
We'll drive around
                  F#m 
roll the windows down
              D 
Turn up the stereo
                 A E 
yeah it's summertime
          F#m D 
and it's hot as Mexico
              A E 
We'll drive around
                  F#m 
roll the windows down
              D 
Turn up the stereo
           E A (hold)
yeah it's summertime

Necrocomicon Tabs by Teenage Bottlerocket

 -----------------------------------------------------------------------------
                                       NECROCOMICON - Teenage Bottlerocket
-----------------------------------------------------------------------------
Tabbed by: Peedunkey
E-mail: bubbin.rose@gmail.com

Tuning: Standard

I needed to tab this out for a three-piece arrangement so it's missing some background
guitar in the solo, etc. but other than that it should be accurate and complete :)

Intro

e|---------------------------------|
B|---------------------------------|
G|---------------------------------| x1
D|-777-777-777-777-777-777-777-777-|
A|-777-777-777-777-777-777-777-777-|
E|-555-555-555-555-555-555-555-555-|

e|---------------------------------|
B|---------------------------------|
G|------101010---------------------| x4
D|-777--101010--101010--555--------|
A|-777--8-8-8---101010--555--------|
E|-555----------8-8-8---333--------|

Verse

e|-------------------------------------------------|
B|-------------------------------------------------|
G|-------------------------------------------------|
D|-777777------3333-5555-777777-------3333-5555----|
A|-777777-1010-3333-5555-777777-1010--3333-5555----|
E|-555555-8-8--1111-3333-555555-8-8---1111-3333----|

e|----------------------------------|
B|----------------------------------|
G|------101010----------------------| x2
D|-777--101010--101010--555---------|
A|-777--8-8-8---101010--555---------|
E|-555----------8-8-8---333---------|

e|-----------------------------------------------|
B|-----------------------------------------------|
G|-----------------------------------------------|
D|-777777-------3333-5555-777777-------3333-5555-|
A|-777777-1010--3333-5555-777777-1010--3333-5555-|
E|-555555-8-8---1111-3333-555555-8-8---1111-3333-|

Chorus

e|----------------------------------|
B|----------------------------------|
G|-------10101010-------------------| x4
D|-7777--10101010--10101010--5555---|
A|-7777--8-8-8-8---10101010--5555---|
E|-5555------------8-8-8-8---3333---|

e|----------------------------------|
B|----------------------------------|
G|----------------------------------|
D|-77777777777777777777777777777777-|
A|-77777777777777777777777777777777-|
E|-55555555555555555555555555555555-|

Solo

e|----------------------------------------------------------------|
B|----------------------------------------------------------------|
G|-----9-----9---7----7----------------9-----9---7----7----5-4----| x2
D|-7-7---7-7---7----7---7-10-9-7---7-7---7-7---7----7---7------5--|
A|----------------------------------------------------------------|
E|----------------------------------------------------------------|

e|--------------------------------------|
B|--------------------------------------|
G|------------7-9-12-10--10-9-7---------| x2
D|-7---7-9-10-------------------10-9-5--|
A|--------------------------------------|
E|--------------------------------------|

Chorus

e|----------------------------------|
B|----------------------------------|
G|-------10101010-------------------| x7
D|-7777--10101010--10101010--5555---|
A|-7777--8-8-8-8---10101010--5555---|
E|-5555------------8-8-8-8---3333---|

e|----------------------------------|
B|----------------------------------|
G|----------------------------------|
D|-1010101010101010-99999999-777----|
A|-1010101010101010-99999999-777----|
E|-8-8-8-8-8-8-8-8--77777777-555----|

Shake It Off Chords – Teddy Geiger

 A 
When the sun goes down
And the stars go bright
We can light a fire
We can light up
Wherever we go
Wherever we go

We can disconnect from the world outside
And turn off our mind
Keep our eyes wide
Wherever we go
Wherever we go

 D F#m A E 
But when we’re letting go turn on the radio ohh woah
 D F#m E 
What are we waiting for let’s pack our bags and go ohh woah
               D F#m 
Leave our fears behind
          A E 
Come on waste sometime
 D 
Turn on the radio
 F#m E 
Get on your stereo woah ohh
Just just shake it off

 A D 
We can dream tonight like the very first time

We can drive one night to the sunrise
         A 
Laying the sun
In the sun
             D 
When I’m dreaming alone in the rain outside
Or the scene from the lane that is passing by
         A 
Like a shore
Wherever we go

 D F#m A E 
But when we’re letting go turn on the radio ohh woah
 D F#m E 
What are we waiting for let’s pack our bags and go ohh woah
           D F#m 
Leave our fears behind
          A E 
Come on waste sometime
 D 
Turn on the radio
 F#m E 
Get on your stereo woah ohh
Just just shake it off

Thats All For Everyone Tabs by Tame Impala

                   Tame Impala - That's All for Everyone (Fleetwood Mac Cover)
            from the 2012 Fleetwood Mac tribute album Just Tell Me That You Want Me

Verse:
"That's all for everyone, that's all for me,
That's all for everyone, must be just exactly what I need,
I care for everyone, I cry for more,
That's all for everyone, must be just exactly what I..."
Synth:
e|--9--------6---------9--------6--------6---------8--------5--------6--------|
B|-11--------8--------11--------8--------6--------10--------6--------8--------|
G|-10--------8--------10--------8--------7--------10--------7--------8--------| x2
D|-11--------8--------11--------8--------8--------10--------8--------8--------|
A|--9--------6---------9--------6--------8---------8-----------------6--------|
E|---------------------------------------6------------------------------------|


Bridge:
"...need (that's all),
I need somewhere to go (that's all),
Must be what I need (that's all),
I need someone to know, exactly what I..."
Synth:
e|-5--------3--------5--------6--------5--------3--------5----------------|
B|-6--------4--------6--------8--------6--------4--------6----------------|
G|-7--------3--------7--------8--------7--------3--------7----------------|
D|-8--------3--------8--------8--------8--------3--------8----------------|
A|----------------------------6-------------------------------------------|
E|------------------------------------------------------------------------|


Verse:
"...need, I can't stand it, I can't deceive,
That's all for everyone, must be just exactly what I need,
So that's all for everyone, that's all for me,
That's all for everyone, must be just exactly what I..."
Synth and guitar:
e|--9--------6---------9--------6--------6---------8--------5--------6--------|
B|-11--------8--------11--------8--------6--------10--------6--------8--------|
G|-10--------8--------10--------8--------7--------10--------7--------8--------| x2
D|-11--------8--------11--------8--------8--------10--------8--------8--------|
A|--9--------6---------9--------6--------8---------8-----------------6--------|
E|---------------------------------------6------------------------------------|


Bridge:
"...need (that's all),
I need somewhere to go (that's all),
Must be what I need (that's all),
I need someone to know, exactly what I..."
Synth:
e|-5--------3--------5--------6--------5--------3--------5----------------|
B|-6--------4--------6--------8--------6--------4--------6----------------|
G|-7--------3--------7--------8--------7--------3--------7----------------|
D|-8--------3--------8--------8--------8--------3--------8----------------|
A|----------------------------6-------------------------------------------|
E|------------------------------------------------------------------------|


Verse:
"...need, oooooooooooh,
Aaaaaahhhhhh,
Oooooooooooh,
Aaaaaahhhhhh,
So that's all for everyone, must be just exactly what I..."
Synth:
e|--9--------6---------9--------6--------6---------8--------5--------6--------|
B|-11--------8--------11--------8--------6--------10--------6--------8--------|
G|-10--------8--------10--------8--------7--------10--------7--------8--------| x2
D|-11--------8--------11--------8--------8--------10--------8--------8--------|
A|--9--------6---------9--------6--------8---------8-----------------6--------|
E|---------------------------------------6------------------------------------|


Bridge/outro:
"...need (that's all),
I need somewhere to go (that's all),
Must be what I need (that's all),
I need someone to know, (that's all)
Exactly what I need (that's all)
That's all, that's all"
Synth and guitar:
e|-5--------3--------5--------6--------5--------3--------5--------6--------|
B|-6--------4--------6--------8--------6--------4--------6--------8--------|
G|-7--------3--------7--------8--------7--------3--------7--------8--------| x2
D|-8--------3--------8--------

Led Zeppelin Tabs by Tame Impala V2

                           Tame Impala - Led Zeppelin
                  bonus track from their 2012 album Lonerism

Intro:
Guitar:
e|---------------------------------------------------------|
B|-5.--3.--5-5-3.--5-/7--7.----5.--3.--5-5-3.--5-/7--7.----|
G|-5.--4.--5-5-4.--5-/7--7.----5.--4.--5-5-4.--5-/7--7.----| x2
D|---------------------------------------------------------|
A|---------------------------------------------------------|
E|---------------------------------------------------------|


Main riff:
Guitar:
e|---------------------------------------------------------|
B|-5.--3.--5-5-3.--5-/7--7.----5.--3.--5-5-3.--5-/7--7.----|
G|-5.--4.--5-5-4.--5-/7--7.----5.--4.--5-5-4.--5-/7--7.----|      \         \
D|---------------------------------------------------------|       \         \
A|---------------------------------------------------------|        \         \
E|---------------------------------------------------------|         |         |
                                                                     | x2      |
e|--------------------------------------------------------------|    |         |
B|-5.--3.--5-5-3.--5-/7--7.--7.--7-\5----3.--5-5-3.--5-/7--7.---|   /          |
G|-5.--4.--5-5-4.--5-/7--7.--7.--7-\5----4.--5-5-4.--5-/7--7.---|  /           |
D|--------------------------------------------------------------| /            |
A|--------------------------------------------------------------|              |
E|--------------------------------------------------------------|              |
                                                                               | x2
e|-10.--10-\8-----10.--10-\8-----10.--10-\8---12-12-12--7-7----|               |
B|-12.--12-\10----12.--12-\10----12.--12-\10--13-13-13--8-8----|               |
G|-------------------------------------------------------------|               |
D|-------------------------------------------------------------|               |
A|-------------------------------------------------------------|               |
E|-------------------------------------------------------------|               |
                                                                               |
e|-10.--10-\8-----10.--10-\8----------------------------------|                |
B|-12.--12-\10----12.--12-\10---------------------------------|               /
G|-----------------------------------7-9-7-9-7---7-9-7---7----|              /
D|-------------------------------7h9-----------9-------9------|             /
A|------------------------------------------------------------|
E|------------------------------------------------------------|


Pre-verse:
Guitar:
e|---------------------------------------------------------|
B|-5.--3.--5-5-3.--5-/7--7.----5.--3.--5-5-3.--5-/7--7.----|
G|-5.--4.--5-5-4.--5-/7--7.----5.--4.--5-5-4.--5-/7--7.----|
D|---------------------------------------------------------|
A|---------------------------------------------------------|
E|---------------------------------------------------------|

e|-------------------------------------------------------5h7p5--|
B|-5.--3.--5-5-3.--5-/7--7.----5.--3.--5-5-3.--5-/7--7.---------|
G|-5.--4.--5-5-4.--5-/7--7.----5.--4.--5-5-4.--5-/7--7.---------|
D|--------------------------------------------------------------|
A|--------------------------------------------------------------|
E|--------------------------------------------------------------|


Verse 1:
"Senses taking over, thought to set me free"
Guitar:
e|---------------------------------------------------------|
B|-5.--3.--5-5-3.--5-/7--7.----5.--3.--5-5-3.--5-/7--7.----|
G|-5.--4.--5-5-4.--5-/7--7.----5.--4.--5-5-4.--5-/7--7.----|
D|---------------------------------------------------------|
A|---------------------------------------------------------|
E|---------------------------------------------------------|

"I tried to get up, but it was pouring down on me"
e|----------------------------

Beverly Laurel Tabs by Tame Impala V2

                         Tame Impala - Beverly Laurel
                  bonus track from their 2012 album Lonerism

The drums play a beat and then...

Intro:
Keyboard:
e|-----------------------------7.--9.-10.--12b14r12-----------------|
B|----------------7.--8-10.-----------------------------------------|
G|-9.-9.--7--9------------------------------------------------------| x6
D|------------------------------------------------------------------|
A|------------------------------------------------------------------|
E|------------------------------------------------------------------|

The synth just sustains the chords, but you can add a basic rhythm to it:
e|-7--7--7--7--5--5--5--5--2--2--2--2--2--3--3--3--|
B|-8--8--8--8--7--7--7--7--3--3--3--3--3--5--5--5--|
G|-9--9--9--9--6--6--6--6--4--4--4--4--4--4--4--4--| x6
D|-9--9--9--9--7--7--7--7--4--4--4--4--4--5--5--5--|
A|-7--7--7--7--5--5--5--5--2--2--2--2--2--3--3--3--|
E|-------------------------------------------------|


Verse:
"Why do they say that they know what's right for me?
Hey, I know what's right for me"
e|-7--7--7--7--5--5--5--5--2--2--2--2--2--3--3--3--|
B|-8--8--8--8--7--7--7--7--3--3--3--3--3--5--5--5--|
G|-9--9--9--9--6--6--6--6--4--4--4--4--4--4--4--4--| x2
D|-9--9--9--9--7--7--7--7--4--4--4--4--4--5--5--5--|
A|-7--7--7--7--5--5--5--5--2--2--2--2--2--3--3--3--|
E|-------------------------------------------------|


Back to keyboard riff:
Keyboard:
e|-----------------------------7.--9.-10.--12b14--r12---------------|
B|----------------7.--8-10.-----------------------------------------|
G|-9.-9.--7--9------------------------------------------------------| x2
D|------------------------------------------------------------------|
A|------------------------------------------------------------------|
E|------------------------------------------------------------------|

e|-----------------------------7.--9.-10.---------------------------|
B|----------------7.--8-10.----------------12b14r12-----------------|
G|-9.-9.--7--9------------------------------------------------------|
D|------------------------------------------------------------------|
A|------------------------------------------------------------------|
E|------------------------------------------------------------------|

Synth:
e|-7--7--7--7--5--5--5--5--2--2--2--2--2--3--3--3--|
B|-8--8--8--8--7--7--7--7--3--3--3--3--3--5--5--5--|
G|-9--9--9--9--6--6--6--6--4--4--4--4--4--4--4--4--| x3
D|-9--9--9--9--7--7--7--7--4--4--4--4--4--5--5--5--|
A|-7--7--7--7--5--5--5--5--2--2--2--2--2--3--3--3--|
E|-------------------------------------------------|


Then stripped down to just organ:
Organ plays the chords:
e|-7--------5--------2----------3------|
B|-8--------7--------3----------5------|
G|-9--------6--------4----------4------|
D|-9--------7--------4----------5------|
A|-7--------5--------2----------3------|
E|-------------------------------------|


Verse:
"Why do they say that they know what's right for me?
Hey, I know what's right for me"
e|-7--7--7--7--5--5--5--5--2--2--2--2--2--3--3--3--|
B|-8--8--8--8--7--7--7--7--3--3--3--3--3--5--5--5--|
G|-9--9--9--9--6--6--6--6--4--4--4--4--4--4--4--4--| x2
D|-9--9--9--9--7--7--7--7--4--4--4--4--4--5--5--5--|
A|-7--7--7--7--5--5--5--5--2--2--2--2--2--3--3--3--|
E|-------------------------------------------------|


Back to keyboard riff again:
Keyboard:
e|-----------------------------7.--9.-10.--12b14r12-----------------|
B|----------------7.--8-10.-----------------------------------------|
G|-9.-9.--7--9------------------------------------------------------| x2
D|------------------------------------------------------------------|
A|------------------------------------------------------------------|
E|------------------------------------------------------------------|

Synth::
e|-7--7--7--7--5--5--5--5--2--2--2--2--2--3--3--3--|
B|-8--8--8--8--7--7--7--7--3--3--3--3--3--5

Hallelujah Tabs by Ryan Bingham V3

 "Hallelujah"
Ryan Bingham
Tab by One Speed


  Notes:

= Standard Tuning

= Capo on 4th fret

= Listen to the live versions of the song on YouTube to get the timing down.

The tabs on this song are very close to how Bingham plays the tune. I first want to 
thank everyone who contributes to
creation and improvement of tabs. If you hate this tab, please ask yourself one 
question, "What have I done to improve
access to free accurate tablature?". If you have a more accurate tab of this song please 
post so we can all become better
guitarist. If you have nothing to offer other than criticism please keep it to yourself 
your not helping anyone.

OK enough soap-box rants, here are some tips for learning the song.

-----------------------------------------------------------------------------

Tips:

Start by getting use to the chords and progression by just strumming through without 
trying to emphasize the "roll"
in the treble notes.

Next, pluck your bass note and then slowly start picking the notes in the roll pattern. 
Do this step slowly and as accurately as possible.
Accuracy is the key in order to play up to speed the way Bingham does.

Lastly, for the transition into the chorus, if you listen to Bingham he begins to "open 
up" and intensifies his strumming to the point
where the roll is not as emphasized.

Good Luck!!!

-----------------------------------------------------------------------------

Verse


|--------0----------0----------0----------0---------0---|
|-------3-3--------3-3--------3-3----/5----0-------0----|
|------0---0------0---0------0---0----------0-----0-----|       Repeat
|---2----------0----------0-----------------------------|
|---0----------2----------3----------/5-----------------|
|---0----------0----------0--------------------3--------|


Chorus

        Hallelujah...

|----------|
|----------|
|-0-0-0-0--|
|-2-2-2-0--|
|-2-2-2-2--|
|-0-0-0-3--|

Coming Home...

|----------|
|----------|
|-0-0-0-0--|
|-2-2-2-0--|
|-2-2-2-2--|
|-0-0-0-3--|

or

|-------3--|
|----------|
|-0-0-0-0--|
|-2-2-2-0--|
|-2-2-2-2--|
|-0-0-0-3--|

I Like to throw in the High e string in the G chord to give it a little more body, 
however either way works.


Lyrics


The other day I found myself upon the corner
Thought I'd run into a friend of mine.
Ended up that he was just a stranger,
Said, "hello," as he passed me by.

But then he turned and put a gun to my head,
He said, "My friend, I'm gonna rob you blind."
I said, "You must be down on your luck, I'm outta money and I'm all outta time."

He pulled the trigger and I fell to my knees,
My spirit left and then my body went cold.
I'm lookin down upon the lights of the city,
I feel alive but I'm dead and gone.

Ain't no more beggin on the side of the road,
No more sleepin on the edge of a frown.
Ain't no more favours from someone I don't know
'Cause there ain't nobody near me,
Nobody's around.

Hallelujah, coming home,
Hallelujah, he's dead and gone,
Hallelujah, something's wrong,
Hallelujah.

So tell me now if your singing can bring me
Another day with my feet on the ground.
I miss livin and livin misses me,
I miss it so much that I'm holdin me down.
For all the things that I never could change,
For all the reasons that I never understood and why
I feel alone, baby,
I'm dead and gone, baby,
Something's wrong 'cause you know I still feel alive.
My train is rollin down the line
And I'mma wait until it bring me to dream of holding you up in my eyes.
Oh feel my love, honey,
From up above, honey,
But don't give up on me 'cause I'm comin down.
I'm not a one-nighter,
I'm not a flat-liner,
I'm everything 'tween the harmonies that you're singin loud.

Hallelujah, coming home
Hallelujah, he's dead and gone
Hallelujah, something's wrong
Hallelujah, it's just a song

The other day I found myself upon the corner,
Thought I'd run into a friend of mi

The Garden Tabs by Rush V3

 -------------------------------------------------------------------------------
                             The Garden – Rush
-------------------------------------------------------------------------------
Tabbed by: Terry Kay
E-mail:

Tuning:EADGBe

Intro:

e|-----------------------------------------------------------------------------|
B|-----------------------------------------------------------------------------|
G|-----------------------------------------------------------------------------|
D|---7---8---7---10-----7---8---7-----7---8---7---3---3---3---3----------------|
A|-8---8---8---8------8---8---8-----8---8---8---8---4---4---4---4--------------|
E|-----------------------------------------------------------------------------|


e|---------------------------------------------------------------------------|
B|---------------------------------------------------------------------------|
G|---------------------------------------------------------------------------|
D|---7---8---7---10-----7---8---7-----7---8---7---5---5---5---5--------------|
A|-8---8---8---8------8---8---8-----8---8---8---8---6---6---6---6------------|
E|---------------------------------------------------------------------------|

Chords:

Strum

F

e|--1--|
B|--1--|
G|--2--|
D|--3--|
A|--3--|
E|--1--|

A# sus2sus4

e|--1--|
B|--1--|
G|--3--|
D|--1--|
A|--1--|
E|--x--|

A# sus2

e|--1--|
B|--1--|
G|--2--|
D|--2--|
A|--1--|
E|--1--|

F

e|--1--|
B|--1--|
G|--2--|
D|--3--|
A|--3--|
E|--1--|


Riff:


e|-----------------------------------------------------------------|
B|----3-4--3--3----3-4--3---3-----3-4--3---3----3-4--3---3---------|
G|----------0-------------0--------------0-------------0-----------|
D|-----------------------------------------------------------------|
A|-----------------------------2--------------2--------------------|
E|--3------------3-------------------------------------------------|

e|-----------------------------------------------------------------|
B|----3-4--3--3----3-4--3---3-----3-4--3---3----3-4--3---3---------|
G|----------0-------------0--------------0-------------0-----------|
D|------------------------------1-------------1--------------------|
A|--3-----------3--------------------------------------------------|
E|-----------------------------------------------------------------|

e|-----------------------------------------------------------------|
B|----3-4--3--3----3-4--3---3-----3-4--3---3----3-4--3---3---------|
G|----------0-------------0--------------0-------------0-----------|
D|-----------------------------------------------------------------|
A|-----------------------------2--------------2--------------------|
E|--3------------3-------------------------------------------------|

e|-----------------------------------------------------------------|
B|----3-4--3--3----3-4--3---3-----3-4--3---3----3-4--3---3---------|
G|----------0-------------0--------------0-------------0-----------|
D|--1-----------0--------------------------------------------------|
A|------------------------------3--------------1-------------------|
E|-----------------------------------------------------------------|

Minor Thing Tabs by Red Hot Chili Peppers V5

 U-up stroke
D-down stroke

Intro and Verse:
   F#m7                        C#m D             Dmaj7
   D   D  UD D DUD DUD D DUDUDUD   D   D  UD D DUD DUD D DUDUDUDUDU
e|-0---0--00-0-xx0-xx0-0-x00xxx9-|-------------xx9-xx9-9-99x7777777-|
B|-2---2--22-2-xx2-xx2-2-x22xxx9-|-7---7--77-7-xx7-xx7-7-77x7777777-|
G|-2---2--22-2-xx2-xx2-2-x22xxx9-|-7---7--77-7-xx7-xx7-7-77x7777777-|
D|-4---4--44-4-xx4-xx4-4-x44xxx--|-7---7--77-7----------------------|
A|-4---4--44-4-xx4-xx4-4-x44xxx--|-5---5--55-5----------------------|
E|-x---x--xx-x-xxx-xxx-x-xxxxxx--|----------------------------------|
   '   '   '   '   '   '   '   '   '   '   '   '   '   '   '   '

And then, after "he knows everything":
   A                E   Dmaj7
   D   D   U  D  DU D   D   D  U   D   D
e|------------------12--14--14-14--14--14-|
B|-14--14--14-14-xx-12--14--14-14--14--14-|
G|-14--14--14-14-xx-13--14--14-14--14--14-| x2
D|-14--14--14-14-xx-14--12--12-12--12--12-|
A|-0---0---0--0--xx-----------------------|
E|----------------------------------------|

"You got your big part":
    (just go U D repeatedly)
e|--14-14-14-14-14-14-14-14-14-14-14-14-14-14-14-14-14-14-14-14-14-14-14-14-17-17-17-17-19-19-19-19--|
B|--14-14-14-14-14-14-14-14-14-14-14-14-14-14-14-14-14-14-14-14-14-14-14-14-17-17-17-17-19-19-19-19--|
G|--14-14-14-14-14-14-14-14-14-14-14-14-14-14-14-14-14-14-14-14-14-14-14-14-16-16-16-16-18-18-18-18--|
D|---------------------------------------------------------------------------------------------------|
A|---------------------------------------------------------------------------------------------------|
E|---------------------------------------------------------------------------------------------------|
In the second time, add this, then repeat both lines again:

e|--14-14-14-14-14-14-14-14-14-14-14-14-14-14-14-14-14-14-14-14-14-14-14-14-17-17-17-17-16-16-16-16--|
B|--14-14-14-14-14-14-14-14-14-14-14-14-14-14-14-14-14-14-14-14-14-14-14-14-17-17-17-17-17-17-17-17--|
G|--14-14-14-14-14-14-14-14-14-14-14-14-14-14-14-14-14-14-14-14-14-14-14-14-16-16-16-16-16-16-16-16--|
D|---------------------------------------------------------------------------------------------------|
A|---------------------------------------------------------------------------------------------------|
E|---------------------------------------------------------------------------------------------------|


Solo:
e|-12b14------12--9--12--------------------------------------12-------------|
B|-----------------------------------------14-------------14----------------|
G|----------------------11b13--r11---11-11----13b14r13-11-------13b14r13-11-|
D|--------------------------------------------------------------------------|
A|--------------------------------------------------------------------------|
E|--------------------------------------------------------------------------|

e|--------------------------------------------------------------------------|
B|-14-----------------------------------------------------------------------|
G|----13b14r13-11-11/13-9-11------------------------------------------------|
D|---------------------------11-11------------------------------------------|
A|--------------------------------------------------------------------------|
E|--------------------------------------------------------------------------|


Outro (repeat twice):
                  (just strum this chord a lot after every phrase)
e|------------0----------16-16-16-16-16-16----------------0-----------------|
B|----------0----7-------14-14-14-14-14-14--------------0-------------------|
G|--4-----4--------6-----14-14-14-14-14-14-------4----4------6b7-6----------|
D|--------------------------------------------------------------------------|
A|--------------------------------------------------------------------------|
E|--------------------------------------------------------------------------|

e|------------0-----------------------

River In The Road Acoustic Tabs by Queens Of The Stone Age

 Joshs guitar from here http://www.youtube.com/watch?v=FC7lqY7qANM

Verses

E|-----------------------------------------------------------------------------------------------|
B|-----------------------------------------------------------------------------------------------|
G|-------------4-4-4---4-------------------------------------------------------------------------|
D|--5-5-5---5--4-4-4---4--4-4-4--4--5-5-5---5--2-2-2---2--4-4-4---4--12-12-12---12-12-9-9-9---9--|
A|--5-5-5---5--2-2-2---2--4-4-4--4--5-5-5---5--2-2-2---2--4-4-4---4--12-12-12---12-12-9-9-9---9--|
E|--3-3-3---3-------------2-2-2--2--3-3-3---3--0-0-0---0--2-2-2---2--10-10-10---10-10-7-7-7---7--|

Chorus

E|--------------------------------------------------------------------------------|
B|--------------------------------------------------------------------------------|
G|--------------------------------------------------------------------------------|
D|--5-5-5---5-5-5---9-9-9---9-9-9---4-4-4---4-4-4---5-5-5---5-5-5---2-2-2---2-2-2-|
A|--5-5-5---5-5-5---9-9-9---9-9-9---4-4-4---4-4-4---5-5-5---5-5-5---2-2-2---2-2-2-|
E|--3-0-3---3-0-3---7-0-7---7-0-7---2-0-2---2-0-2---3-0-3---3-0-3---0-3-0---0-3-0-|

E|------------------------------------------------------|
B|------------------------------------------------------|
G|------------------------------------------------------|
D|--4-4-4---4-4-4---12-12-12---12-12-12---9-9-9---9-9-9-|
A|--4-4-4---4-4-4---12-12-12---12-12-12---9-9-9---9-9-9-|
E|--2-3-2---2-3-2---10-0--10---10-0--10---7-0-7---7-0-7-|

SOLO I (not too sure about last four notes, but it fits)

E|---------------------------------------------------------------------|
B|--------19--------17------17--------15------15------------14------14-|
G|--16----------16------16--------16------16------16----14------14-----|
D|---------------------------------------------------------------------|
A|---------------------------------------------------------------------|
E|---------------------------------------------------------------------|

E|-----------------------------------------------------------------------|
B|------12------12-----------12------12-------8-----8------------------7-|
G|--12------12-------12--11------11--------9-----9-----9------7--9--7----|
D|-----------------------------------------------------------------------|
A|-----------------------------------------------------------------------|
E|-----------------------------------------------------------------------|

SOLO II

All notes on tremolo

E|--17--15--19--14------12--12--14--12--------------------------------------------|
B|------------------12------------------12--14--12--14--15--17--15--14--12-----12-|
G|--------------------------------------------------------------------------12----|
D|--------------------------------------------------------------------------------|
A|--------------------------------------------------------------------------------|
E|--------------------------------------------------------------------------------|

Ending

E|---------------------------------------------------------------|
B|---------------------------------------------------------------|
G|---------------------------------------------------------------|
D|--12-12-12-12--9-9-9-9--9-9-9-9--12-12-12-12--9-9-9-9--9-9-9-9-|
A|--12-12-12-12--9-9-9-9--9-9-9-9--12-12-12-12--9-9-9-9--9-9-9-9-|
E|--10-10-10-10--7-7-7-7--7-7-7-7--10-10-10-10--7-7-7-7--7-7-7-7-|

E|--------------------------------------------------------------------------|
B|--------------------------------------------------------------------------|
G|--------------------------------------------------------------------------|
D|--12-12-12-12--16-16-16-16-16-16-16-16--12-12-12-12--16-16-16-16-16-16-16-|
A|--12-12-12-12--16-16-16-16-16-16-16-16--12-12-12-12--16-16-16-16-16-16-16-|
E|--10-10-10-10--14-14-14-14-14-14-14-14--10-10-10-10--14-14-14-14-14-14-14-|

E|------------------------