Month: October 2014

I Will Never Let You Down chords – Rita Ora V7

 Standard Tuning
Capo on 2nd Fret
[Intro]
D A Bm Bm F#m G  x2
[Verse 1]
D A Bm 
Tell me baby what we gonna do
Bm F#m G 
I'll make it easy, got a lot to lose
D A Bm 
Watch the sunlight coming through
Bm F#m G 
Open the window, let it shine on you
[Pre-Chorus]
D 
Cos I've been sick and working all week
A Bm 
And I've been doing just fine
Bm 
You've been tired of watching me
F#m G 
Forgot to have a good time boy
D 
You can't take it, all these faces
A Bm  
Never keeping it real
Bm F#m G 
I know exactly how you feel
[Chorus]
G 
When you say you've had enough
D 
and you might just give it up
Bm A 
Oh    Ooh, 
F#m G 
I Will Never Let You Down
G 
When you're feeling low on love
D 
I'll be what you're dreaming of
Bm A 
Oh    Ooh, 
F#m G 
I Will Never Let You Down
G D Bm A 
Oh    Ooh, 
F#m G 
I Will Never Let You Down
G D Bm A 
Oh    Ooh, 
F#m G 
I Will Never Let You Down
D A Bm Bm F#m G 
[Verse 2]
D A Bm 
There's a million ways to go
Bm F#m G 
Don't be embarrassed if you lose control
D A Bm 
On the rooftop, now they know
Bm F#m G 
Your body's frozen and you've lost your soul
[Pre-Chorus]
D 
Cos I've been sick and working all week
A Bm 
And I've been doing just fine
Bm 
You've been tired of watching me
F#m G 
Forgot to have a good time boy
D 
You can't take it, all these faces
A Bm  
Never keeping it real
Bm F#m G 
I know exactly how you feel
[Chorus]
G 
When you say you've had enough
D 
and you might just give it up
Bm A 
Oh    Ooh, 
F#m G 
I Will Never Let You Down
G 
When you're feeling low on love
D 
I'll be what you're dreaming of
Bm A 
Oh    Ooh, 
F#m G 
I Will Never Let You Down
G D Bm A 
Oh    Ooh, 
F#m G 
I Will Never Let You Down
G D Bm A 
Oh    Ooh, 
F#m G 
I Will Never Let You Down
[Bridge]
G D 
Let me take you where you never go
Bm A F#m G 
Have a little fun, it's the only way we know
G D 
Let me show you what you never see
Bm A F#m G 
You know how to love, only when you're holding me oh!
[Chorus]
G 
When you say you've had enough
D 
and you might just give it up
Bm A 
Oh    Ooh, 
F#m G 
I Will Never Let You Down
G 
When you're feeling low on love
D 
I'll be what you're dreaming of
Bm A

Where Ive Been Tabs – Rival Sons V2

 Rival Sons - Where I've been
This tab is for standard tuning but the original is in Open G.
Intro: At the G chord you can play around but this is somewhat right.
Eb         E            G                         F            E              G
e-------------------------------------------------------------------------------3--
b---10-12-10----12----12----------3-----------------------13-----------13-------3--
G---------------12h14-12------4h5---5p4p0-2h4p2p0-----13----13-----13----13-----0--
D---------------------------5---------------------------------13-----------13---0--
A-------------------------------------------------------------------------------2--
E-11---------12-----------3-------------------------13--13-------12--12---------3--
Verse: 
C G F C x3
F C G x1
C G
She said since we've been together
F C
I tried not to keep secrets
C    G
I was so lost then
F     C
I don't like to talk about it
C  G
See, I needed money
F  C
Cause the habit wasn't cheap
F C
I gave them my body
G
Now my memory won't let me sleep
( Play intro on this part :) )
Now I lay beside you
And when you touch me
I feel like I don't deserve you
That's when you remind me
Chorus: F C G
F    C
She says how could you love me
G
When you know where I've been
F    C
How could you love me
G
When you know where I've been
Second Verse, same chords:
C G
You said when I came home
F C
I tried to put myself back together
C G
The war is still going on
F  C
Now my brother is still in danger
C  G
Now I'm the soldier
F C
And the tradition runs deep
F C
I gave them my body
G
Now my memory won't let me sleep
Have fun!

Sword Of Damocles chords – Rocky Horror

 here's an approximate version of the way peter hinwood does it in the film - it might be a bit different 
from the way it is usually in the stage show but? i tried?
A D A D 
The Sword of Damocles is hanging over my head
A D A D 
And I've got the feeling someone's gonna be cutting the thread
A D 
Oh, woe is me
E A 
My life is a misery
A D 
Oh, can't you see
E                                               
That I'm at the start of a pretty big downer
A 
I woke up this morning with a start when I fell out of bed (That ain't no crime)
And left from my dreaming was a feeling of unnameable dread (That ain't no crime)
My high is low
I'm dressed up with no place to go
And all I know
Is I'm at the start of a pretty big downer (Oh, Rocky!)
A D 
Sha la la la
That ain't no crime (Oh no no no)
A D 
Sha la la la
That ain't no crime  (Oh no no no)
A D 
Sha la la la
E     
That ain't no crime, that ain't no crime
The Sword of Damocles is hanging over my head (That ain't no crime)
And I've got the feeling someone's gonna be cutting the thread (That ain't no crime)
Oh, woe is me
My life is a mystery
And can't you see
That I'm at the start of a pretty big downer
Sha la la la
That ain't no crime 
Oh no no no 
Sha la la la
That ain't no crime 
Oh no no no 
Sha la la la
That ain't no crime, that ain't no crime (x2)

Hajar Bichana chords – Rupam Islam

 A E 
ek hath theke onno haate
D 
shudhu bodlao hajar bichhanaye
G# 
kisher shantona khuje berao
A E 
kon lojjaye bahu byabohrito
D 
thote hashi rekhecho enke
G# 
hariyecho ki niruddeshe, thikana tao
ek hath theke onno haate
shudhu bodlao hajar bichhanaye
kisher shantona khuje berao
kon lojjaye bahu byabohrito
thote hashi rekhecho enke
G# (continue...)
hariyecho ki niruddeshe, thikana tao
D C#m 
tomake dekhle ekhon kichuta koshto hoy
B E 
tomader mithyer duniya ta shudhu sposhto hoy
G#m C#m 
ebhabei sab sombhabonai jodi noshto hoy
B E 
ochirei sesh hobe prithibi tumi ki setai chao?
(Chords follows as first part)
ek din sesh hoye jabe sab
sesh hobe lok thokanor utsab
ja tumi bhabcho aaj osambhab, kal hobe
sei phele asha phire ashar poth
ar chhure phela kono shopoth
onushochonar ache jege raat, sokal hobe
rong palte nebe girgiti
biplob shudhu vanity
paikari ei karbare, baare baare
oo, dariye ache gypsy’r caravan
jabo, as soon as I can
britha udbhid ghor-baari te raat baare
tomake dekhle ekhon kichuta koshto hoy
tomader mithyer duniya ta shudhu sposhto hoy
ebhabei sab sambhabonai jodi noshto hoy
ochirei sesh hobe prithibi tumi ki setai chao?
A ...... F# ..... D ....... C A ...... F# ..... D ....... B ..( G# ).. E A F# D E A F# D Dm A F# D E A F# D Dm A F# D E 
ek din sesh hoye jabe sab
A F# D Dm 
ek din sesh hoye jabe sab
(continues)x2

Swg Sweet Wholesome Gal chords – Ryan Higa

 capo 5!
These chords are played throughout the song! :
F C Am G F C 
She covered up nice, with her skirt long
Am G 
J.C. Penny’s shoes, got them J’s on
F C 
If you my girl, you know what i’d do
Am G                
show a bunch a kindness, and respect you.
F C 
Beautiful and smart -send her my way
Am G 
don’t need no double d’s -i want straight a’s
she a good girl i’ll be scoring
slam dunk… Micheal Jackson
F C 
I’ll open your door till the day i die, take my jacket anytime
Am G 
tell me all your secrets and i’ll keep them locked down deep inside
F C 
when you need a shoulder tissue, i got this
Am G 
i volunteer as tribute, katniss
Chorus 1
F C Am 
I wanna sit on the couch with you tonight
G F 
3 ft apart sipping diet sprite
C Am 
Till curfew we can watch full house
G F 
All i really want’s, sweet wholesome gal.
C Am 
SWG, SWG, SWG
G F                 
Sweet Wholesome Gal.
C Am 
SWG, SWG, SWG
G C               
Sweet Wholesome Gal.
Verse 2
F C 
Baby i Just gotta let you know
Am G 
when you smile like that, makes me wanna take you home, 
take you home, introduce you to my folks, 
and we can hold hands at the dinner table.
And I love to watch you back it up and drive it
hands ten and two, buckled in, my girl surviving
5 under the speed limit, with both feet 
she be switching lanes but never miss a blink.
But she also got a dangerous side, you’ll come to see
eyes closed, head bobbin’ when she’s on molly
you know molly your bestie form down the street
man I luv that girl, also a S.W.G.
Chorus 2
F C Am 
Oh baby we can shop the day away
G F 
with coupons, so much we can save
carry your bags till my back gives out
all i really want’s, sweet wholesome gal
SWG, SWG, SWG
Sweet Wholesome Gal.
SWG, SWG, SWG
Sweet Wholesome Gal.
Bridge
F C    
Now let me see you skip
Am G F            
Let me see you skip like hopscotch
C 
Now let me see you skip
Am G F 
Come on baby show me what you got
Chorus 3
F C Am 
Three long years, but well worth the wait
G F 
After all this time, today’s the date
have a first kiss when we say our vows
Finally found myself a sweet wholesome gal
SWG, SWG, SWG
Sweet Wholesome Gal
SWG, SWG, SWG
Sweet Wholesome Gal.

I Want You Tabs – Saint Raymond

 -------------------------------------------------------------------------------
I Want You - Saint Raymond
-------------------------------------------------------------------------------
: kingsleyrjones, Manchester UK.
Tuning: Standard 
Main 1st guitar parts. Catchy riffs galore.
Guitar Riff and Intro:
e|----------------7---------------------------(10)<-(Can be played as alternative to 7th on G)-|
B|--10-10-10-10-7---7-7-(7)-8-8-8-8-7----------------------------------------------------------|
G|------------------------------------9-9/11-9-7-----------------------------------------------|
D|---------------------------------------------------------------------------------------------|
A|---------------------------------------------------------------------------------------------|
E|---------------------------------------------------------------------------------------------|
Fills
e|------------------------------------10-------------------------------------|
B|---------------------------------------------------------------------------|
G|--7-7-7-7-7-9/11-9-7-9-9-9-9-7-9/11----------------------------------------|
D|---------------------------------------------------------------------------|
A|---------------------------------------------------------------------------|
E|---------------------------------------------------------------------------|
Chorus 1:
e|--14----------------------|
B|--15----------------------|
G|--14----------------------|
D|--------------------------|
A|--------------------------|
E|--------------------------|
Chorus 2 pt. 2:
e|--------------7------------------------------------------------------------|
B|--10-10-10-10---10-10-8-8-8-8-8-10-10--------------------------------------|
G|---------------------------------------------------------------------------|
D|---------------------------------------------------------------------------|
A|---------------------------------------------------------------------------|
E|---------------------------------------------------------------------------|
Instrumental:
e|---------------------------------------------------------------------------|
B|--8-7-----------------8-7--------------7-----------------------------------|
G|------9-7-7/9-9-7/9-9-----9-7--7/9-9-9---9-7-------------------------------|
D|---------------------------------------------------------------------------|
A|---------------------------------------------------------------------------|
E|---------------------------------------------------------------------------|
Order:
Intro (1 bar unplayed)
Intro Riff X2
Verse 1 = Fill played in between lines
Pre-Chorus (palm muting)
Chorus 1
Intro Riff
Verse 2 = Fill played in between lines
Pre-Chorus (palm muting)
Chorus 2 (enter half way through)
Instrumental
Bridge (nothing played)
Chorus 3 (nothing played)
Instrumental until finish
TUNE. ENJOY PLAYING.
Twitter: @KingsleyTheGoat
************************************
| /   slide up
************************************

Trees Are A Swayin chords – Say Hi

 Intro:
G D Em C G D Em C G D Em C G D G G D Em C 
The trees are swayin' and the sky's comin' down
G D Em C 
And we better get to shelter or we might in fact drown
G D Em C 
And I know I never say it 'cause it's never like this
G D G 
But I'll love you 'til the end of the world
G D Em C G D Em C G D Em C 
Ohh, ohh, ohh
G D G 
But I'll love you 'til the end of the world
G D Em C 
You can make me feel small and you can take my hand
G D Em C 
And you can tell me what to do and you can kiss another man
G D Em C 
And I know I never say it 'cause it's never like that
G D G 
But I'll love you 'til the end of the world
G D Em C G D Em C G D Em C 
Ohh, ohh, ohh
G D G 
But I'll love you 'til the end of the world
G D Em C 
The trees are swayin' and the sky's comin' down
G D Em C 
And we made it to some shelter but the power's goin' out
G D Em C 
And I know I never say it 'cause it's never like this
G D G 
But I'll love you 'til the end of the world

De Schaduw Van Het Kruis chords – Scene

 A F# E 
e |---------------------------------------------------| 
b |---------------------------------------------------| 
g |-----2--2---2-------------2---------------2-1------| 
d |----2------2-------------2--2------------2---------|
a |---0---0--0----------------------------------------|
e |---------------------0-2-------------2-0-----------|
A/C# D A/C# 
e |----x-------------------x-----------------x--------| 
b |------------------------3--------------------------| 
g |----2-------------------2----------------=2--------| 
d |----2-------------------0-----------------2--------|
a |---4-------------------5-----------------4---------|
e |---------------------------------------------------|
De Schaduw van het kuis
A F# E A 
jongen, jongen, wat heb je lang gewacht
A F# E A 
in het niemandsland tussen wangedrag en tact
A A/C# D    A/#            E  
waar dromen komen  en lokken je van huis
A F# E A 
en overal de schaduw van het kruis
jongen, jongen, jij leeft hier maar een uur
waar gerookt wordt en gedronken tussen pulp en cultuur
waar dromen komen en lokken je van huis
en overal de schaduw van het kruis
A                                    
en het bidt en het schreeuwt
F# E 
en het grijpt je bij de keel
A     
en het fluistert in je oor
F# E 
tot je liegt en tot je steelt
A 
en het is nooit genoeg
F# E A        
maar altijd teveel
jongen, jongen, jij neemt hier niet veel mee
wat te eten, wat te drinken, je bed en je TV
maar dromen komen en lokken je van huis
en overal de schaduw van het kruis
en het bidt en het schreeuwt
en het grijpt je bij de keel
en het fluistert in je oor
tot je liegt en tot je steelt
en het is nooit genoeg
maar altijd teveel
jongen, jongen, wat heb je lang gewacht
in het niemandsland tussen eerlijkheid en tact
waar dromen komen, lokken je van huis
en overal de schaduw van het kruis

When I Think About The Lord chords – Shane And Shane V3

 Capo 2
Carry Away version, not Pages version.
Pages version would require transposition up 2 steps and downtuning to Eb.
I V  C  V  C  CC
[INTRO]
D G D/F# Em E Cmaj7 Em C D 
[VERSE]
G D/F# 
When I think about the Lord
Em7 
How He saved me
E7 
How He raised me
Cmaj7add9             Em
How He filled me up with the Holy Ghost
C D 
How He healed me to the uttermost
G D/F# 
When I think about the Lord
Em E7 
How He picked me up and turned me around
Am7 F D 
How he set my feet on solid ground
[CHORUS]
G D/F# 
It makes me wanna shout hallelujah
Em 
Thank you Jesus
E7 Am7 
Lord You’re worthy of all the glory
F 
(and) all the honor
D 
(and) all the praise
G D/F# 
It makes me wanna shout hallelujah
Em 
Thank you Jesus
E7 Am7 
Lord You’re worthy of all the glory
Em 
(and) all the honor
Cmaj7 D 
(and) all the praise
[VERSE]
G D/F# 
When I think about the Lord
Em7 
How He saved me
E7 
How He raised me
Cmaj7add9             Em
How He filled me up with the Holy Ghost
Cmaj7add9          D
How He healed me to the uttermost
G D/F# 
When I think about the Lord
Em E7 
How He picked me up and turned me around
Am7 F D 
How he set my feet on solid ground
[CHORUS]
G D/F# 
It makes me wanna shout hallelujah
Em 
Thank you Jesus
E7 Am7 
Lord You’re worthy of all the glory
F 
(and) all the honor
D 
(and) all the praise
G D/F# 
It makes me wanna shout hallelujah
Em 
Thank you Jesus
E7 Am7 
Lord You’re worthy of all the glory
Em 
(and) all the honor
C D 
(and) all the praise
[CLOSING CHORUS]
G D/F# 
Hallelujah
Em 
Thank you Jesus
Em**
Lord You’re worthy
Am 
of all the glory
Em 
(and) all the honor
C D 
(and) all the praise     (yeah)
D 
Hallelujah
Em 
Thank you Jesus
E7 Am7 
Lord You’re worthy of all the glory
Em 
(and) all the honor
C D 
(and) all the praise
C D 
(and) all the praise
C D 
(and) all the praise
G 
**This is probably not an intended chord. The singer sings concert A# afterward.
A# is only found in the major chord, like other choruses show.
Having said this, I am only putting what is in the backing instrumentals.

Song 9 Tabs – Sunny Day Real Estate

 -------------------------------------------------------------------------------
SONG #9 - Sunny Day Real Estate
-------------------------------------------------------------------------------
: Brian (Ansigod) McCall
bpmccal@hubcap.clemson.edu
Tuning: DGCFAD (Whole Step Down)
Intro - Feedback (mostly B) and some other picking or hammer-on
noises (I think it's the 14th and 12th frets on the G string)
Part 1
Guitar 1
d|------------------------------------------------------------------|
A|------------------------------------------------------------------|
F|-4-4-4---------------------4-4-4---------------------4-4-4--------|
C|-X-X-X---------------------X-X-X---------------------X-X-X--------|
G|-2-2-2---------------------2-2-2---------------------2-2-2...-----|
D|------------------------------------------------------------------|
Guitar 2
d|--------------------------------------------------------------------|
A|--------------------------------------------------------------------|
F|--------------------------------------------------------------------|
C|---------------9--------------------------9-----------------------9-|
G|---------------X--------------------------X-----------------------X-|
D|---------------7--------------------------7-----------------------7-|..
Part 2
Guitar 1 (Layered) (note: sounds closer to the recording if you mute the
strings closer to the nut and palm mute as usual)
d|------------------------------------------------------------------|
A|------------------------------------------------------------------|
F|------------------------------------------------------------------|
C|-X-X-X-X-X-X-X-X-X-X--X-X-X-X-X-X-X-X--X-X-X-X-X-X-X-X-X-X--X-X-X-|
G|-X-X-X-X-X-X-X-X-X-X--X-X-X-X-X-X-X-X--X-X-X-X-X-X-X-X-X-X--X-X-X-|
D|-X-X-X-X-X-X-X-X-X-X--X-X-X-X-X-X-X-X--X-X-X-X-X-X-X-X-X-X--X-X-X-|
pm---------------------------------------------------------------|
Guitar 2
d|--------------------------------------------------------------------|
A|--------------------------------------------------------------------|
F|--------------------------------------------------------------------|
C|---------------9--------------------------9-----------------------9-|
G|---------------X--------------------------X-----------------------X-|
D|---------------7--------------------------7-----------------------7-|..
Guitar 3
d|----------------------------------------------------------0---0---|
A|--------------------------------------------------------0-0-0-0---|
F|--------------------------------------------------------0-0-0---0-|
C|------------------------------------------------------------------|
G|------------------------------------------------------------------|
D|------------------------------------------------------------------|
Part 3
Guitar 1
d|------------------|--------------------------------------------------------|
A|------------------|--------------------------------------------------------|
F|-12--12-11--11--9-|-4--4--4-X-X-X-X-X-X-4--4--4-X-X-X-X-X-X-7--7--7-X-X-X--|
C|--X---X--X---X--X-|-X--X--X-X-X-X-X-X-X-X--X--X-X-X-X-X-X-X-X--X--X-X-X-X--|
G|-10--10--9---9--7-|-2--2--2-X-X-X-X-X-X-2--2--2-X-X-X-X-X-X-5--5--5-X-X-X--|
D|------------------|---------X-X-X-X-X-X---------X-X-X-X-X-X----------------|X-X-X...
G2
d|------------------|--------------------------------------------------------|
A|------------------|--------------------------------------------------------|
F|------------------|-11-11-11-11-11-11-11-11-11-11-11-11-11--7-7-7-7-7-7-7--|
C|------------------|--X--X--X--X--X--X--X--X--X--X--X--X--X--X-X-X-X-X-X-X--|
G|----------------0-|--9--9--9--9--9--9--9--9--9--9--9--9--9--5-5-5-5-5-5-5--|..
D|--2------3--------|--------------------------------------------------------|
Part 4
Guitar 1
d|------------------------------------------------------------------|
A|------------------------------------------------------------------|
F|----------

Päivänsäde Ja Menninkäinen chords – Tapio Rautavaara

 email: severi377
Am Dm 
Aurinko kun päätti retken,
Am Dm 
siskoistaan jäi jälkeen hetken
Am E7 Am E7 
päivänsäde viimeinen.
Dm Am 
Hämärä jo metsään hiipi,
Dm Am 
päivänsäde kultasiipi
D D7 G G7 
juuri aikoi lentää eestä sen,
C Am Dm G7 
kun menninkäisen pienen näki vastaan tulevan;
C D7 G G7 
se juuri oli noussut luolastaan.
C C7 F F#dim 
Kas menninkäinen ennen päivän laskua ei voi
C Dm7 G7 C 
milloinkaan olla päällä  maan.
Am Dm 
Katselivat toisiansa
Am Dm 
menninkäinen rinnassansa
Am E7 Am E7 
tunsi kummaa leiskuntaa.
Dm Am 
Sanoi: poltat silmiäni,
Dm Am 
mut' en ole eläissäni
D D7 G G7 
nähnyt mitään yhtä ihanaa!
C Am Dm G7 
Ei haittaa vaikka loisteesi mun sokeaksi saa - 
C D7 G G7 
on pimeässä hyvä asustaa.
C C7 F F#dim 
Käy kanssani, niin kotiluolaan näytän sulle tien -
C Dm7 G7 C 
ja sinut armaakseni  vien!
Am Dm 
Säde vastas: peikko kulta,
Am Dm 
pimeys vie hengen multa,
Am E7 Am E7 
enkä toivo kuolemaa.
Dm Am 
Pois mun täytyy heti mennä,
Dm Am 
ellen kohta valoon lennä,
D D7 G G7 
niin en hetkeäkään elää saa.
C Am Dm G7 
Niin lähti kaunis päivänsäde mutta vieläkin,
C D7 G G7 
kun menninkäinen öisin tallustaa,
C C7 F F#dim 
hän miettii, miksi toinen täällä valon lapsi on,
C Dm7 G7 C 
ja toinen yötä   rakastaa.

Ophelia chords – The Band V3

 Ophelia
The Band
C E7                   
Boards on the window, mail by the door, 
A7 D7 
What would anybody leave so quickly for?
F G7 C A7 D7 G7 
Ophelia, where have you gone?
C E7                    
The old neighborhood, just ain't the same  
A7 D7 
Nobody knows just what became of..
F G7 C C7 D7 E7 
Ophelia, tell me, what went wrong?
F C           
Was it something that somebody said? 
G7 C 
Mama, I know we broke the rules.
F C               
Was somebody up against the law? 
G7 G7#5 
Honey, you know I'd die for you.
C E7                   
Ashes of laughter, the ghost is clear, 
A7 D7 
Why do the best things always disappear, like
F G7 C A7 D7 G7 
Ophelia?  Please darken my door.
Lead 
CHORUS
C E7                   
They got your number, scared & running, 
A7 D7 
But I'm still waiting for the second coming of
F G7 C                    
Ophelia, come back home. 

Superpowers Tabs – The Dismemberment Plan

 -------------------------------------------------------------------------------
SUPERPOWERS - The Dismemberment Plan
-------------------------------------------------------------------------------
: Jim
kensarcade@hotmail.com
Tuning: Standard
(1:00)
guitar 1 (clean):
-----------------|
-12--13--12--10--|
-12--12--12--12--|
-----------------|
-----------------|
-----------------|
then (1:09):
--------------------------------|
------------------------12--10--|
------------------------12--12--| play 3 times
--------------------------------|
--------------------------------|
--------------------------------|
then (1:29):
-----
-12--
-----
-----
-----
-----
First Chorus (1:35):
-------------------------------------------------------------------------------------------------|
-------------------------------------------------------------------------------------------------|
---8---8---8---8---10---10---10---10---11---11---11---11---6---6---6---6---2---2---2---2---2---2-|
-------------------------------------------------------------------------------------------------|
-6---6---6---6---8----8----8----8----9----9----9----9----4---4---4---4---0---0---0---0---0---0---|
-------------------------------------------------------------------------------------------------|
then (1:46):
--------------------------------------------------------------------------|
--------------------------------------------------------------------------|
---8---8---8---8---10---10---10---10---11---11---11---11---6---6---6---6--|
--------------------------------------------------------------------------|
-6---6---6---6---8----8----8----8----9----9----9----9----4---4---4---4----|
--------------------------------------------------------------------------|
then (1:54):
----------------------------------|
----------------------------------|
---2---2---2---2---2---2---2---2--|
----------------------------------|
-0---0---0---0---0---0---0---0----|
----------------------------------|
Second Verse (1:57):
guitar 1 (palm muted):
-------------------------|
-------------------------|
-------------------------|
-9-7-7--7-7-7-7-7-7-7-9--|
-------------------------|
-------------------------|
*NOTE* This guitar changes what it plays a bit during the final bars of the
verse. It sounds mostly like the same 2 notes, but in a little bit of a
random pattern (oxymoron?).
Second Chorus (2:46):
-------------------------------------------------------------------------------------------------|
-------------------------------------------------------------------------------------------------|
---8---8---8---8---10---10---10---10---11---11---11---11---6---6---6---6---2---2---2---2---2---2-|
-------------------------------------------------------------------------------------------------|
-6---6---6---6---8----8----8----8----9----9----9----9----4---4---4---4---0---0---0---0---0---0---|
-------------------------------------------------------------------------------------------------|
then (2:57):
--------------------------------------------------------------------------|
--------------------------------------------------------------------------|
---8---8---8---8---10---10---10---10---11---11---11---11---6---6---6---6--|
--------------------------------------------------------------------------|
-6---6---6---6---8----8----8----8----9----9----9----9----4---4---4---4----|
--------------------------------------------------------------------------|
then (3:05):
------------------------------------------------------------------|
------------------------------------------------------------------|
---2---2---2---2---2---2---2---2---2---2---2---2---2---2---2---2--| play twice
------------------------------------------------------------------|
-0---0---0---0---0---0---0---0---0---0---0---0---0---0---0---0----|
------------------------------------------------------------------|
then (3:21):
---5---7---5---7---5---7---5---5---5--

The First Time Ever I Saw Your Face chords – The Moon Loungers

 The First Time Ever I Saw Your Face by Roberta Flak - Acoustic cover by the Moon Loungers
YouTube video - https://www.youtube.com/watch?v=e-OI6PZI4PM
CHORDS
G Am7 D7 G/F# Bm7 Cadd9 F Em7 
______      x_____       x_____       _x____       x_____       x_____       ______       ______
||||||      ||||♦|       ||||||       ||||||       ||||||       ||||||       ╪╪╪╪╪╪       ||||||
|♦||||      ||♦|||     3 ||||♦|       ♦|||||       |♦|♦||       ||♦|||       |||♦||       |♦♦|||
♦|||♦♦      ||||||       ||♦|||       ||||♦♦       ||||♦|       |♦||♦♦       |♦♦|||       ||||♦♦
||||||      ||||||       |♦|♦||       ||||||       ||||||       ||||||       ||||||       ||||||
||||||      ||||||       ||||||       ||||||       ||||||       ||||||       ||||||       ||||||
INTRO
G Am7 D7   (x 2)
VERSE 1
Am7 D7 G G/F# Em7 Bm7 Cadd9 
The first time ever I saw your face          I thought the sun rose in your eyeeeees
D7 G F G 
And the moon and stars were the gifts you gave to the dark and the empty skies
VERSE 2
Am7 D7 G G/F# Em7 Bm7 Cadd9 
The first time ever I kissed your mouth          and felt your heart beat close to miiiine
D7 G F G 
Like the trembling heart of a captive bird that was there at my command
VERSE 3
Am7 D7 G G/F# Em7 Bm7 Cadd9 
And the first time ever I lay with you          I felt your heart beat close to miiiine 
D7 G F G 
And I knew our joy would fill the earth and last till the end of time
ENDING
Am7 D7 G F G F G 
The first time ever I saw your faaaaace, your faaaaace, your faaaaace

Time Of Your Life chords – The Moon Loungers

 Time of Your Life by Green Day - Acoustic cover by the Moon Loungers
YouTube video - http://www.youtube.com/watch?v=VW98Q39QrJQ
CHORDS
G Cadd9 Dsus2 D Em7 
______      x_____       xx____       xx____       ______
||||||      ||||||       ||||||       ||||||       ||||||
|♦||||      ||♦|||       |||♦||       |||♦|♦       |♦♦|||
♦|||♦♦      |♦||♦♦       ||||♦♦       ||||♦|       ||||♦♦
||||||      ||||||       ||||||       ||||||       ||||||
||||||      ||||||       ||||||       ||||||       ||||||
VERSE 1
G Cadd9 Dsus2 
Another turning point a fork stuck in the road
G Cadd9 D 
Time grabs you by the wrist directs you where to go
Em7 Dsus2 Cadd9 G 
So make the best of this test and don't ask why
Em7 Dsus2 Cadd9 G 
It's not a question but a lesson learned in time
CHORUS
Em7 G Em7 G 
It's something unpredictable but in the end it's right
Em7 D G 
I hope you had the time of your life
VERSE 2
G Cadd9 Dsus2 
So take the photographs and still frames in your mind
G Cadd9 Dsus2 
Hang it on a shelf in good health and good time
Em7 Dsus2 Cadd9 G 
Tattoos of memories and dead skin on trial
Em7 Dsus2 Cadd9 G 
For what it's worth it was worth all the while
CHORUS
Em7 G Em7 G 
It's something unpredictable but in the end it's right
Em7 D G 
I hope you had the time of your life
INSTRUMENTAL
|   G Cadd9 Dsus2   |    G Cadd9 Dsus2   |   G Cadd9 Dsus2   |
|   G Cadd9 Dsus2   |   Em7 G Em7 G   |    Em7 D G     |
CHORUS
Em7 G Em7 G 
It's something unpredictable but in the end it's right
Em7 D G 
I hope you had the time of your life
BREAK
|   G Cadd9 Dsus2   |    G Cadd9 Dsus2   |
FINAL CHORUS
Em7 G Em7 G 
It's something unpredictable but in the end it's right
Em7 Dsus2 G 
I hope you had the time of your life

Slottet 2 Tabs – The Radio Dept

 likely my favorite radio dept track. instrumental off lesser matters.
these are all the guitar parts
-=chords=-
Emaj7  021100
Amaj7  X02120
Dmaj7  XX0222
-=intro=-
Emaj7
E|-------------------|
B|-------------------|
G|-----------1-------|
D|--------1-----1----|
A|-----2-----------2-|
E|--0----------------|
x4
-=verse=-
this isn't how you play it, just how to play the chords
Emaj7       x2     Amaj7       x2     Dmaj7         x2   Amaj7*        x2
E|-------------------|------------------|----------2-------|----------0--------|
B|-------------------|----------2-------|-------2-----2----|-------2-----2-----|
G|-----------1-------|-------1-----1----|----2-----------2-|----1-----------1--|
D|--------1-----1----|----2-----------2-|-0----------------|-2-----------------|
A|-----2-----------2-|-0----------------|------------------|-------------------|
E|--0----------------|------------------|------------------|-------------------|
progression:
Emaj7 Amaj7 Dmaj7 Emaj7
Dmaj7 Amaj7*(x2)
Dmaj7 (add in a little 5 on the high e) Amaj7
Dmaj7 (now with high e)
Emaj7 Amaj7 Dmaj7 Emaj7
Dmaj7 Amaj7*(x2)
-=solo=-
tremolo picked. slap on the reverb, son.
E|--------------------------------------------------------------------------------|
B|--12--9--4--9--4--2--10--9--10--9--10--9--10--9--10--9--10--9--10--9--10--9--5--|
G|--------------------------------------------------------------------------------|
D|--------------------------------------------------------------------------------|
A|--------------------------------------------------------------------------------|
E|--------------------------------------------------------------------------------|
E|---------------------------------------------------|
B|--14--12--10--9--7--14--12--10--5--17--15--14--10--|
G|---------------------------------------------------|
D|---------------------------------------------------|
A|---------------------------------------------------|
E|---------------------------------------------------|
minor variations on a second guitar the next time this is played
ends on piano

I Dont Believe In Love chords – The School

 Capo 2
Intro:  C Am C Am C Am 
You've really got me this time
F 
It's too late to leave
G 
And neither of us wants to go home
C Am 
But as we're here let's face the situation
F  /  Dm G    
Let me explain, I don't believe in love
C Am 
Tonight there's no-one else above us
F 
It's just you and me
G 
And all the idiots hanging around
C Am 
Don't have a clue what they're trying to prove now
F  /  Dm G F Fm 
But I've realized I don't believe in love until we dance
C Am 
Well I, I think you'd better stop there
F 
You hold my hand
G 
It makes me wanna cry
C 
Let's take a vow
Am 
Don't underestimate it
F  /  Dm G 
We both know it's true, we don't believe in love
F  /  Dm G 
And there's nothing you can do about it
C Am 
It's unconditional, it's unforgivable
F  /  Dm G 
There's nothing you can do to stop it
C Am 
Not anymore
C Am 
Well I, I think you'd better stop there
F 
You hold my hand
G 
It makes me wanna cry
C 
Let's take a vow
Am 
Don't underestimate it
F  /  Dm G 
We both know it's true, we don't believe in love
C 
But you've gotta admit
It was as good as it gets
Am 
But don't give yourself away
F G 
I don't need anyone, no no no no
C 
But you've gotta admit
It was as good as it gets
Am 
But don't give yourself away
F G 
I don't need anyone, no no no no

Fericire chords – Vama Veche

 Am G 
fericire cand iarba apare
F C           
fericire cand raza de soare
Dm C                 
intra-n cort si iti mangaie fata
Bb G 
aeru-i sarat
fericire e-o sticla de vin
fericire e cerul senin
intr-o zi-n care ai hotarat
sa alergi pe camp
fericire-i cand puiul de om
vrea in brate si moare de somn
fericire cand frunzele cad
la un picnic in parc
fericire-i cand iti amintesti
cat de fericit esti cand iubesti
fericire-i totul la ea
chiar pe canapea
fericire e cand tatal tau
te invita la el in birou
si deschide o sticla de bere
prima bere din viata ta

Shut Up And Dance chords – Walk The Moon

 CAPO 6
Intro
G C Em D G C 
Oh don't you dare look back
Em D 
Just keep your eyes on me.
G C 
I said you're holding back,
Em D 
She said shut up and dance with me!
G C Em D 
This woman is my destiny
G C 
She said oh oh oh
Em D 
Shut up and dance with me
G C Em D  X2
G C Em D 
We were victims of the night,
G C Em D 
The chemical, physical, kryptonite
G C Em D 
Helpless to the bass and faded light
G C 
Oh we were bound to get together,
Em D 
Bound to get together.
G C 
She took my arm,
Em D 
I don't know how it happened.
G C D 
We took the floor and she said
G C 
Oh don't you dare look back
Em D 
Just keep your eyes on me.
G C 
I said you're holding back,
Em D 
She said shut up and dance with me!
G C Em D 
This woman is my destiny
G C 
She said oh oh oh
Em D 
Shut up and dance with me
G C Em D G C Em D 
A backless dress and some beat up sneaks,
G C Em D 
My discothèque, Juliet teenage dream.
G C Em D 
I felt it in my chest as she looked at me.
G C 
I knew we were bound to be together,
Em D 
Bound to be together.
G C 
She took my arm,
Em D 
I don't know how it happened.
G C D 
We took the floor and she said
G C 
Oh don't you dare look back
Em D 
Just keep your eyes on me.
G C 
I said you're holding back,
Em D 
She said shut up and dance with me!
G C Em D 
This woman is my destiny
G C 
She said oh oh oh
Em D 
Shut up and dance with me
Solo
C Em G C D  X4
G C 
Deep in her eyes,
Em D 
I think I see the future.
G C Em D 
I realize this is my last chance.
G C 
She took my arm,
Em D 
I don't know how it happened.
G C D 
We took the floor and she said
G C Em D  X2
G C 
Oh don't you dare look back
Em D 
Just keep your eyes on me.
G C 
I said you're holding back,
Em D 
She said shut up and dance w

Shut Up And Dance chords – Walk The Moon V2

 Walk the Moon
"Shut up and Dance"
Capo-6 
Intro
(  G G  ,  C  C, x x,  Em Em  ,  D D D D  )
G C 
Oh don't you dare look back
Em D 
Just keep your eyes on me.
G C 
I said you're holding back,
Em D G 
She said shut up and dance with me!
C Em D 
This woman is my destiny
G C 
She said oh oh oh
Em D G 
Shut up and dance with me
Break 
(  G G  ,  C  C, x x,  Em Em  ,  D D D D  ) x2
G C Em 
We were victims of the night,
D G C Em   
The chemical, physical, kryptonite
D G C Em 
Helpless to the bass and faded light
D G C 
Oh we were born to get together,
Em D 
Born to get together.
G C 
She took my arm,
Em D 
I don't know how it happened.
G C D 
We took the floor and she said
G C 
Oh don't you dare look back
Em D 
Just keep your eyes on me.
G C 
I said you're holding back,
Em D G 
She said shut up and dance with me!
C Em D 
This woman is my destiny
G C 
She said oh oh oh
Em D G 
Shut up and dance with me
Break 
(  G G  ,  C  C, x x,  Em Em  ,  D D D D  ) 
G C Em 
A backless dress and some beat up sneaks,
D G C Em 
My discothèque, Juliet teenage dream.
D G C Em D   
I felt it in my chest as she looked at me.
G C 
I knew we were born to be together,
Em D 
Born to be together
G C 
She took my arm,
Em D 
I don't know how it happened.
G C D 
We took the floor and she said
G C 
Oh don't you dare look back
Em D 
Just keep your eyes on me.
G C 
I said you're holding back,
Em D G 
She said shut up and dance with me!
C Em D 
This woman is my destiny
G C 
She said oh oh oh
Em D G 
Shut up and dance with me
"Solo"
(  G G  ,  C  C, x x,  Em Em  ,  D D D D  ) X2
G C 
Deep in her eyes,
Em D 
I think i see the future.
G C D 
I realize this is my last chance.
G C 
She took my arm,
Em D</span