Tag: 1

Among The Oak And Ash Album Chords version 1 by Among The Oak and Ash

Among The Oak And Ash - Album (2009)


1.  Hiram Hubbard
2.  Peggy-O                             tabbed by I_came_to_rock
3.  Angel Gabriel                       tabbed by eldi13
4.  Shady Grove
5.  The Water Is Wide
6.  The Housewife's Lament
7.  Pretty Saro
8.  All The Pretty Little Horses
9.  Come All You Young And Tender Ladies
10. Joseph Hillström 1879-1915
11. Look Down That Lonesome Road
12. High, Low And Wide
13. Bigmouth Strikes Again



==================================================================


Track 1 - Hiram Hubbard



[Intro]
D

[Verse 1]
                                       G            D
Come all you friends and neighbours, a story I will tell
                                       G            D
Come all you friends and neighbours, a story I will tell
                                 G               D
Concerning Hiram Hubbard and the way in which he fell


[Verse 2]
                                         G             D
While travelling through this country in sorrow and distress
                                         G             D
While travelling through this country in sorrow and distress
                                 G                  D
The sheriff caught up to him and placed him under arrest 


[Verse 3]
                                              G       D
Hiram Hubbard was not guilty, I heard a great man, he said
                                              G       D
Hiram Hubbard was not guilty, I heard a great man, he said
                                           G      D
He was not in this country, he was sixteen miles away


[Verse 4]
                                           G      D
They lead him up the holler, they lead him up the hill
                                           G      D
They lead him up the holler, they lead him up the hill
                                        G         D
To a place of execution where he sat to write his will


[Verse 5]
                                                G    D
They wound the cords around him, they bound him to a tree
                                                G    D
They wound the cords around him, they bound him to a tree
                                            G     D
Nine shots ran through him and he died most bitterly


[Verse 6]
                                              G       D
Hiram Hubbard was not guilty, I heard a great man, he said
                                              G       D
Hiram Hubbard was not guilty, I heard a great man, he said
                                           G      D
He was not in this country, he was sixteen miles away



==================================================================


Track 2 - Peggy-O



Capo 5
Tuning Standard


(C)         (F)    (C)      (F)
As we rowed out To Fenarrio,
(Am)        (G)    (F)(x2)
As we rowed out To Fenarrio,
(Am)                (G)         (F)(x2)
Our captain fell in love,With a lady like a dove
(C)                 (Fx2*)(C)      (F)        
And he called her by name,Peggy-o

Won't you come with me Pretty Peggy-o?
Won't you come with me Pretty Peggy-o?
If you come with me, We'll cross the great, blue sea
Won't you marry me Pretty Peggy-o?

I cannot marry you, oh sailor, no
I cannot marry you, oh sailor, no
I cannot marry you, And cross the ocean blue
I cannot marry you, oh sailor, no

What would your mother say, Peggy-o?
What would your mother say, Pretty Peggy-o?
What would your mother say,If I told her you could stay?
What would your mother say, Peggy-o?


E|-0-0-0-0-0-0-0-0-1-1-1-1-1-1-1-1-----|
A|-1-1-1-1-1-1-1-1-1-1-1-1-1-1-1-1-----|
D|-------------------------------------|  x4
G|-------------------------------------|
B|-------------------------------------|
E|-------------------------------------|


For this gilded dove, Peggy-o,
And for this gilded dove, Pretty Peggy-o,
And for this gilded dove,
Our captain died for love


*(first verse through F x2, future verses x1)


==================================================================


Track 3 - Angel Gabriel




Among the Oak and Ash - Angel Gabriel
Capo on 7, standard tuning

Intro: (And plucking pattern)

    Dm          C              Dm          C
E|--------------------------|--------------------------|
B|--------1-----------0-----|--------1-----------0-----|
G|-----------2-----------0--|-----------2-----------0--|
D|-----2-----------0--------|-----2-----------0--------|
A|--0-----------------------|--0-----------------------|
E|--------------3-----------|--------------3-----------|
                                                 Oh my soul...

(plucking)
C      Dm        C        Dm           C
Oh my soul, my soul, I'm bound for to rest

(plucking)
  Dm                  C    Dm
In the arms of the angel Gabriel
C          Dm          C        Dm
And I'll climb up the hill and look to the west
C       Dm           C           Dm
I'm crossing over Jordan to the land
F                           C
And I'll sit me down in my old arm chair
  Dm      C            F
People, I will not be tired
             Dm        C    Dm               C
And though Satan may speak, I will take my ease
   Dm            C      Dm
As I warm myself up by the fire


(Chorus:)
           F              C
And I'll shout and I'll dance
          Dm   C  Dm            C
And I'll rise up early in the morning
Dm       C      Dm             C
I will rise and rub my sleepy eyes
Dm                  C             Dm
When Gabriel comes blowing on his horn


    Dm          C              Dm          C
E|--------------------------|--------------------------|
B|--------1-----------0-----|--------1-----------0-----|
G|-----------2-----------0--|-----------2-----------0--|
D|-----2-----------0--------|-----2-----------0--------|
A|--0-----------------------|--0-----------------------|
E|--------------3-----------|--------------3-----------|
                                                 Oh my soul...

C     Dm        C        Dm           C
Oh my soul, my soul, I'm bound for to rest
Dm               C           Dm
I'll rest just as sure as I am born
C          Dm           C        Dm
And I'll sing like a blackbird sittin' in its nest
Dm                  C             Dm
When Gabriel comes blowing on his horn
F                           C
And I'll throw my clothes upon the shore
   Dm      C F
New garments I will have to wear
          Dm        C    Dm               C
And I'll have new shoes and never get the blues
      Dm          C       Dm
The angels will come and curl my hair


(Chorus:)
           F              C
And I'll shout and I'll dance
          Dm   C  Dm            C
And I'll rise up early in the morning
Dm       C      Dm             C
I will rise and rub my sleepy eyes
Dm                  C             Dm
When Gabriel comes blowing on his horn


    Dm          C              Dm          C
E|--------------------------|--------------------------|--|
B|--------1-----------0-----|--------1-----------0-----|--|
G|-----------2-----------0--|-----------2-----------0--|--|
D|-----2-----------0--------|-----2-----------0--------|--|
A|--0-----------------------|--0-----------------------|--|
E|--------------3-----------|--------------3-----------|--|
                                                        I (<-- sing on downbeat)

(plucking)
Dm        C             Dm              C
I won't weep when it's time for me to leave

(plucking)
          Dm        C       Dm
I'll pack up my bandbox and go

(plucking)
C    Dm       C              Dm
Goodbye old friends, there isn't time to grieve

(plucking)
C     Dm           C         Dm
I'm moving up to glory very slow
Dm        F                  C
And I'll eat my meals three times a day
    Dm         C     F
You bet your life: I will not be late
          Dm           C       Dm              C
And I'll have lots of fun when all you people come
             Dm               C        Dm
'Cause I'm gonna take the tickets at the gate


(Chorus:)
           C  (One strum)
And I'll shout and I'll dance
G(pick-up) Dm   C  Dm            C
And I'll rise up early in the morning
Dm       C      Dm             C
I will rise and rub my sleepy eyes
Dm                  C             Dm      C
When Gabriel comes blowing on his horn
Dm                  C             Dm      C
When Gabriel comes blowing on his horn

(Single strums:)
Dm                  C             Dm
When Gabriel comes blowing on his horn


==================================================================


Track 4 - Shady Grove




[Intro]
Dm    C  Dm    C  Dm

[Chorus]
             C
Shady Grove, my little love
Dm
Shady Grove, I know
F            C
Shady Grove, my little love
                        Dm
I'm bound for the Shady Grove


[Verse 1]
               C
I wish I had a piece of thread
   Dm
As fine as I could sew
    F                C
I'd sew my true love to my side
                      Dm
And down the road I'd go


[Chorus]
             C
Shady Grove, my little love
Dm
Shady Grove, I know
F            C
Shady Grove, my little love
                        Dm
I'm bound for the Shady Grove


[Verse 2]
                   C
Cheeks as red as a blooming rose
Dm
Eyes of the deepest brown
    F                 C
You are the true love of my life
                       Dm
Stay till the sun goes down


[Chorus]
             C
Shady Grove, my little love
Dm
Shady Grove, I say
    F            C
Oh, Shady Grove, my little love
      Dm           C         Dm
Don't wait for the Judgement Day


[Instrumental]
Dm  C  Dm   C    Dm


[Verse 3]
             C
Wish I had a banjo string
Dm
Made of golden twine
F               C
Every tune that I would play
                       Dm
I'd wish that girl was mine


[Chorus]
             C
Shady Grove, my little love
Dm
Shady Grove, I know
F            C
Shady Grove, my little love
                        Dm
I'm bound for the Shady Grove


[Verse 4]
               C
And if I had a watch of gold
Dm
On a silver chain
    F                C
I'd count the hours 'til the day
                 Dm
I'd see my love again


[Chorus]
             C
Shady Grove, my little love
Dm
Shady Grove, I know
F            C
Shady Grove, my little love
                        Dm
I'm bound for the Shady Grove


[Chorus]
             C
Shady Grove, my little love
Dm
Shady Grove, I say
    F            C
Oh, Shady Grove, my little love
      Dm           C         Dm
Don't wait for the Judgement Day



==================================================================


Track 5 - The Water Is Wide


CAPO: 2nd Fret


## NOTE: ~ = Walk-Down from C to Am ##



[Intro]
C    F  C       F  C    F  C    F  C

[Chorus]
    F        C    F              C   
The water is wide, I can't cross over
       ~    Am  Dm          G 
And neither have I wings to fly
          Em  F               C    F
Give me a boat that can carry two
               C   F   G        C
And both shall row, my love and I


[Verse 1]
      F    C   F                  C   
There is a ship and she sails the sea
         ~   Am   Dm           G 
She's loaded deep, as deep can be
           Em  F                C    F
But not so deep as the love I'm in
           C  F  G       C
I know not how I sink or swim


[Chorus]
    F        C    F              C   
The water is wide, I can't cross over
       ~    Am  Dm          G 
And neither have I wings to fly
          Em  F               C    F
Give me a boat that can carry two
               C   F   G        C
And both shall row, my love and I


[Verse 2]
   F       C       F            C   
My love is handsome and love is fine
   ~ Am   Dm               G 
As a jewel when first it's new
               Em F          C     F
And love grows old and waxes cold
           C  F     G      C
And fades away like summer dew


[Chorus]
    F        C    F              C   
The water is wide, I can't cross over
       ~    Am  Dm          G 
And neither have I wings to fly
          Em  F               C    F
Give me a boat that can carry two
               C   F   G        Am   F
And both shall row, my love and I
               C   F   G        C
And both shall row, my love and I


[Outro]     (fade to end)
C    F  C

    F        C      F            C   
The water is wide,   oh, oh, oh, oh

I can't cross over
  F           C       F  C    F  C    F  C
I can't cross over



==================================================================


Track 6 - The Housewife's Lament




[Intro]
G    C  G    D  G    C  G    D

[Verse 1]
     G                        C            G
Last night in my dreams I was stationed forever
     Em                     D            G
On a far little rock in the midst of the sea
                            C           G
My one chance at life was a ceaseless endeavour
   Em                          D          G
To sweep off the waves as they swept over me


[Chorus]
                       C       G
Oh, life is a toil and love is trouble
                     D           G
Beauty will fade and riches will flee
                          C           G
Pleasures may dwindle and prices they double
                  D              G    C  G    D
And nothing is as nothing should be


[Verse 2]
        G                          C           G
There's too much of worriment that goes to the bonnet
        Em                       D           G
There's too much of ironing that goes to the shirt
                                  C              G
There's nothing that pays for the time you waste on it
        Em                         D           G
There's nothing that lasts but the trouble and dirt


[Chorus]
                       C       G
Oh, life is a toil and love is trouble
                     D           G
Beauty will fade and riches will flee
                          C           G
Pleasures may dwindle and prices they double
                  D              G    C  G    D
And nothing is as nothing should be


[Instrumental]
G    C  G  Em    D  G    C  G  Em    D  G


[Bridge]
   Em                           D
In March it's the mud, it's the slush in December
    C                     A7          D
The midsummer breezes are loaded with dust
   G                         D        
In fall the leaves litter, a muddy September
    Em                     D            G
The wallpaper rots and the candlesticks rust


[Chorus]
         N.C.
Oh, life is a toil and love is trouble
     
Beauty will fade and riches will flee
G                         C           G
Pleasures may dwindle and prices they double
                  D              G 
And nothing is as nothing should be


[Chorus]
                       C       G
Oh, life is a toil and love is trouble
                     D           G
Beauty will fade and riches will flee
                          C           G
Pleasures may dwindle and prices they double
                  D              G
And nothing is as nothing should be
              D              G
Nothing is as nothing should be



==================================================================


Track 7 - Pretty Saro


## NOTE: This song is sung a Capella, there are no chords to this version ##



[Verse 1]
 Down in some lone valley, in some lone place
 Where the wild birds eschew us all and notes to increase
 Farewell pretty Saro, I'll bid you adieu
 And think of you often wherever I go


[Verse 2]
Your parents don't like me, so I understand
They want a freeholder who has him some land
I cannot maintain you with silver and gold
Nor buy you the fine things a big house can hold


[Verse 3]
 If I were a merchant or could write a fine hand
 I'd write you a letter that you'd understand
 I'll follow this river wherever it flows
 And think of you often wherever I go
 And think of pretty Saro wherever I go



==================================================================


Track 8 - All The Pretty Little Horses



CAPO: 2nd Fret



[Verse 1]
Am          G
Hush-a-bye, don't you cry
F                      Am
Go to sleep you little baby
                G
When you awake, you shall have
F                     Am
All the pretty little horses


[Chorus]
C                F
Blacks and bays, dapples and greys
  C            G         F
A coach and six little horses


[Verse 2]
Am               G
Way down yonder, in the meadow
  F             Am
A poor boy is crying
                   G
Dry you eyes, it's no surprise
    F               Am
You can't save the dying


[Chorus]
C                F
Blacks and bays, dapples and greys
C       G             F
All the pretty little horses
C               F
Roans and duns, chestnut ones
C       G             F
All the pretty little horses
C       G             F
All the pretty little horses


[Instrumental]
Am    G  F    Am      G    C  F


[Bridge]
            C                    G
Look at you now, you've had your day
                 F
No room in this world to hide away
                 Am                  G
From me, turn to me, I'm calling you home
            F
Remember my love, you're never alone


[Chorus]
C                F
Blacks and bays, dapples and greys
C       G             F
All the pretty little horses
C               F
Roans and duns, chestnut ones
C       G             F
All the pretty little horses
C       G             F
All the pretty little horses
C       G             F
All the pretty little horses



==================================================================


Track 9 - Come All You Young And Tender Ladies



[Verse 1]
             G                C
Come all you young and tender ladies
                            G
Take warning how you court young men
                                  C
They're like a star on a summer's morning
                G
They'll first appear and then they're gone


[Verse 2]
                        C
If I'd a known before I courted
                           G
That love was such a cruel thing
                                     C
I'd have locked my heart in a box of golden
                G                C
And fastened it up with a silver chain



==================================================================


Track 10 - Joseph Hillström 1879-1915



[Intro]
F   G   F   G

[Verse 1]
                                    C         G
You came from New York harbour, Joe Hill, Joe Hill
                                 D
The skyline's crooked smile, Joe Hill, Joe Hill
G                            C         G
Warned you as a welcome, Joe Hill, Joe Hill
               D             C          G
You never ever could and you never ever will


[Verse 2]
                                   C         G
You found jobs here and there, Joe Hill, Joe Hill
                             D
And it wasn't easy work, Joe Hill, Joe Hill
        G                               C         G
But you can't break a man's dreams, Joe Hill, Joe Hill
               D             C          G
You never ever could and you never ever will


[Chorus]
         Dm           G
Struggle on, struggle on
         Dm           G
Struggle on, struggle on


[Verse 3]
                               C         G
You rode the rails awhile, Joe Hill, Joe Hill
                               D
And you got to California, Joe Hill, Joe Hill
      G                                      C         G
Where bosses tried to hide their crimes, Joe Hill, Joe Hill
                D              C          G
They never ever could and they never ever will


[Verse 4]
                                     C         G
Joined the workers of the world, Joe Hill, Joe Hill
                                         D
Sang your songs while picking limes, Joe Hill, Joe Hill
                G                             C         G
It's where they tried to bust the Unions, Joe Hill, Joe Hill
                    D              C          G
But they never ever could and they never ever will


[Chorus]
         Dm           G
Struggle on, struggle on
         Dm           G
Struggle on, struggle on


[Verse 5]
                          C         G
Salt Lake City, Utah, Joe Hill, Joe Hill
                                    D
They charged you with a murder, Joe Hill, Joe Hill
          G                               C         G
Said, the evidence proved their case, Joe Hill, Joe Hill
              D            C          G
It never ever could and it never ever will


[Verse 6]
                                     C         G
Judge and jury found you guilty, Joe Hill, Joe Hill
                                      D
Said, a death-walk waits for you, Joe Hill, Joe Hill
        G                            C         G
But the State couldn't kill you, Joe Hill, Joe Hill
              D            C          G
It never ever could and it never ever will
              D            C          G
It never ever could and it never ever will


[Outro]    (fade to end)
G



==================================================================


Track 11 - Look Down That Lonesome Road



[Intro]
D   G/D   D   G/D  (4x)  D

[Verse 1]
     G/D                D        G/D
Look up, look down that lonesome road
    D                G/D      D       G/D
Lay down your little head and cry, my love
D                G/D      D 
Hang your little head and cry


[Interlude]
D   G/D   D   G/D  (4x)  D


[Verse 2]
    G/D             D    G/D
The darkest night I ever saw
        D     G/D     D        G/D
Was the day I left my home, my love
    D     G/D     D 
The day I left my home


[Interlude]
D   G/D   D   G/D  (4x)  D


[Verse 3]
       G/D                  D         G/D
Love's few, estranged, must part some day
    D       G/D   D       G/D
And why not do it now, my love
D       G/D   D
Why not do it now


[Interlude]
D   G/D   D   G/D  (4x)  D


[Outro]
   G/D             D       G/D
Oh why, oh why, oh why, my love
D       G/D   D 
Why not do it now



==================================================================


Track 12 - High, Low And Wide


CAPO: 2nd Fret



[Verse 1]
C
I am but a shadow
F
Cast upon the road
    C
And we are all but strangers
F                     G
Bearing a heavy load


[Verse 2]
    C
And all these worldly things
   F
We won't need anymore
       C
You'll only take your place
F                       G
Standing on that shore


[Chorus]
Dm7           F
High, low and wide
       C                 G
That's just how big this ocean gets
Dm7               F
Stronger than the tide
       C                  G
That's just how hard this journey is
F                       C
You've got to cross it alone
F                       C
You've got to cross it alone
F                       G
You've got to cross it alone
N.C.          C
To get back home


[Verse 3]

The efforts of the sun 
    F
Are wasted on the rain
        C
There's nothing in this world
   F                    G
To take away your pain


[Chorus]
Dm7           F
High, low and wide
       C                 G
That's just how big this ocean gets
Dm7               F
Stronger than the tide
       C                  G
That's just how hard this journey is
F                       C
You've got to cross it alone
F                       C
You've got to cross it alone
F                       G
You've got to cross it alone
N.C.          Dm7
To get back home


{Instrumental]
Dm7   F   C   G   Dm7   F   C   G


[Bridge]
F                C
If you cross it alone
F                   C
Free then you shall be
         Am                D
From the troubles that you know
               F       N.C.         C
Oh, we're just sailing to get back home


[Outro]    (repeat 14x and fade to end)
F                       C
You've got to cross it alone



==================================================================


Track 13 - Bigmouth Strikes Again


CAPO: 4th Fret



[Intro]
Am  

[Verse 1]
      Am         C         Dm 
Ohoh, sweetness, sweetness I was only joking
Am   F      G
When I said I'd like to 
                  C       Dm  Am F G
Smash every tooth in your head 



[Verse 2]
Am         C          Dm
Sweetness, sweetness, I was only joking
Am   F      G 
When I said by rights you 
          C                  Dm  
Should be bludgeoned in your bed 

   
[Verse 3]
     F     G                Am
And now I know how Joan of Arc felt
C     Dm               Am      F G 
Now I know how Joan of Arc felt 
       Am                       C
As the flames rose to her Roman nose
        Dm      Am          F  G 
And her hearing-aid started to melt 


[Chorus]
Am        C  Dm  Am        F  G
Bigmouth, la ... bigmouth, la ... 
         Am
Bigmouth strikes again
                C                Dm
And I've got no right to take my place 
         Am         F G
With the Human race 


[Verse 4]
     F     G                Am
And now I know how Joan of Arc felt
C     Dm               Am      F G 
Now I know how Joan of Arc felt 
       Am                         C
As the flames rose to her roman nose
        Dm          Am      F  G 
And her Hearing Aid started to melt 


[Chorus]
Am        C  Dm  Am        F  G
Bigmouth, la ... bigmouth, la ... 
         Am
Bigmouth strikes again
                C                Dm
And I've got no right to take my place
         Am         F G
With the Human race 



==================================================================

Hard Times Chords version 1 by Paramore

Capo 3rd fret

[Intro]
C - - Dm | F - -  Am | C - - Dm | G - F - | x2


[Verse 1]
C          (Dm)
  All that I want
F              (Am)
  Is to wake up fine
C                 (Dm)
  Tell me that I’m alright
G      F
  That I ain’t gonna die
C          (Dm)
  All that I want
F              (Am)
  Is a hole in the ground
C                     (Dm) 
  You can tell me when it’s alright
G    F
  For me to come out

F G Am C


[Chorus]
     Dm
Hard times
                      Am
Gonna make you wonder why you even try
     C
Hard times
                        F
Gonna take you down and laugh when you cry
      Dm
These lives
                           Am
And I still don't know how I even survive
     C           F
Hard times, Hard times

And I gotta get to rock bottom


[Interlude]

C - - Dm | F - -  Am | C - - Dm | G - C - |


[Verse 2]
C     (Dm)
  I'm walking around
F         (Am)
  With my little raincloud
C                 (Dm)
  Hanging over my head
G   F
  And it ain’t coming down
C      (Dm)
  Where do I go?
F           (Am)
  Gimme some sort of sign
C             (Dm)
  Hit me with lightning!
G    F
  Maybe I’ll come alive

F G Am C


[Chorus]
     Dm
Hard times
                      Am
Gonna make you wonder why you even try
     C
Hard times
                        F
Gonna take you down and laugh when you cry
      Dm
These lives
                           Am
And I still don't know how I even survive
     C           F
Hard times, Hard times

And I gotta get to rock bottom


[Bridge]
C
Tell my friends I’m coming down
F
We'll kick it when I hit the ground
C
Tell my friends I’m coming down
F
We'll kick it when I hit the ground
C
     When I hit the ground
F
     When I hit the ground
C
     When I hit the ground
G  F
     When I hit the ground


[Chorus]
     Dm
Hard times
                      Am
Gonna make you wonder why you even try
     C
Hard times
                        F
Gonna take you down and laugh when you cry
      Dm
These lives
                           Am
And I still don't know how I even survive
     C           F
Hard times, Hard times
     Dm
Hard times
                      Am
Gonna make you wonder why you even try
     C
Hard times
                        F
Gonna take you down and laugh when you cry
      Dm
These lives
                           Am
And I still don't know how I even survive
     C           F
Hard times, Hard times

And I gotta get to rock bottom

Cowboy Casanova Tabs – Carrie Underwood Vsion 1

 Come for the Country, stay for the guitar and Rock backing plus simple solos. I could not resist the allure of
being able to use guitar.

Intro: e|-----------------------------|
       B|-----------------------------|
       G|-x-xxx-xxx-xxx-xxx-xxx-xx-xx-|
       D|-x-xxx-xxx-xxx-xxx-xxx-xx-xx-|
       A|-x-xxx-xxx-xxx-xxx-xxx-xx-xx-|
       E|-----------------------------|

       e|-------------------|     e|-----|
       B|-------------------|     B|-----|
       G|-7-x------5-5-33-x-| X3  G|-77~-|
       D|-7-x-33-x-5-5-33-x-|     D|-77~-|
       A|-5-x-33-x-3-3-11-x-|     A|-55~-|
       E|-----11-x----------|     E|-----|

Verse: e|-------------------|     e|-----|
       B|-------------------|     B|-----|
       G|-7-x------5-5-33-x-| X3  G|-77~-| (Repeat entire part twice)
       D|-7-x-33-x-5-5-33-x-|     D|-77~-|
       A|-5-x-33-x-3-3-11-x-|     A|-55~-|
       E|-----11-x----------|     E|-----|

          You better take it from me

          That boy is like a disease

          You're running, you're trying, you're trying to hide

          And you're wondering why you can't get free

          He's like a curse, he's like a drug

          You get addicted to his love

          You wanna get out, but he's holding you down 'cause you can't live without one more 

       e|--------------------------|
       B|--------------------------|
       G|-2-22-22-22-25-55-55-55-5-|
       D|-2-22-22-22-25-55-55-55-5-|
       A|-0-00-00-00-03-33-33-33-3-|
       E|--------------------------|

          touch. He's a 

Chorus: e|---------------------------------------------|
        B|---------------------------------------------|
        G|-7-5~-------------3-33-33-33-32-22-22-22-2-x-| X2
        D|-7-5~-3-33-33-33-33-33-33-33-32-22-22-22-2-x-|
        A|-5-3~-3-33-33-33-31-11-11-11-10-00-00-00-0-x-|
        E|------1-11-11-11-1---------------------------|

           good time cowboy casanova, leaning up against the record machine.

           He looks like a cool drink of water, but he's candy-coated misery

        e|--------------------------------------------------|
        B|--------------------------------------------------|
        G|-7-77-7------------------------------2-22-22-22-2-|
        D|-7-77-72-22-23-33-33-33-35-55-55-55-52-22-22-22-2-|
        A|-5-55-52-22-23-33-33-33-35-55-55-55-50-00-00-00-0-|
        E|-------0-00-01-11-11-11-13-33-33-33-3-------------|

           He's the devil in disguise, a snake with blue eyes and he only comes out at night.

        e|-------------------|
        B|-------------------|
        G|-3-33-33-33-3-5-5~-|
        D|-3-33-33-33-3-5-5~-|
        A|-1-11-11-11-1-3-3~-|
        E|-------------------|

           Gives you feelings that you don't want to fight. You better run for your

Pre-Verse: e|-------------------|     e|-----|
           B|-------------------|     B|-----|
           G|-7-x------5-5-33-x-| X3  G|-77~-|
           D|-7-x-33-x-5-5-33-x-|     D|-77~-|
           A|-5-x-33-x-3-3-11-x-|     A|-55~-|
           E|-----11-x----------|     E|-----|
 
              life

Verse: e|-------------------|     e|--------------------------|
       B|-------------------|     B|--------------------------|
       G|-7-x------5-5-33-x-| X3  G|-------------8-88-88-88-8-|
       D|-7-x-33-x-5-5-33-x-|     D|-3-33-33-33-38-88-88-88-8-|
       A|-5-x-33-x-3-3-11-x-|     A|-3-33-33-33-36-66-66-66-6-|
       E|-----11-x----------|     E|-1-11-11-11-1-------------|

          I see that look on your face

          You ain't hearing what I say

          So I'll say it again 'cause I've been where you've been and I know how it ends

          You can't get away

       e|-------------------|     
       B|-------------------|    
       G|-7-x------5-5-33-x-| X3
       D|-7-x-33-x-5-5-33-x-|   
       A|-5-x-33-x-3-3-11-x-|   
       E|-----11-x----------|   

          Don't even look in his eyes

          He'll tell you nothing but lies

          And you wanna be

Land Of Snow And Sorrow intro Tabs – Wintersun Vsion 1

 -------------------------------------------------------------------------------
                             Land of Snow and Sorrow - Wintersun
-------------------------------------------------------------------------------
: Kakku
Tuning: EADGBE (Normal)

All the way till first verse.

h   = Hammer on
p   = Pull off
/   = slide
(x) = To play or not to play..
~   = Awesome


e|---------------------------------------------------------------------------|
B|---------------------------------------------------------------------------|
G|---------------------------------------------------------------------------|
D|---------------------------------------------------------------------------|
A|-1--1-3-3-----1-1-3-4-4----1--4-6-6----1-1-6-8-8---------------------------|
E|---------------------------------------------------------------------------|

e|---------------------------------------------------------------------------|
B|---------------------------------------------------------------------------|
G|---------------------------------------------------------------------------|
D|---------------------------------------------------------------------------|
A|-1--1-3-3-----1-1-3-4-4----1--4-6-6----1-1-8-9-9---------------------------|
E|---------------------------------------------------------------------------|

e|---------------------------------------------------------------------------|
B|---------------------------------------------------------------------------|
G|---------------------------------------------------------------------------|
D|---------------------------------------------------------------------------|
A|-1--1-3-3-----1-1-3-4-4----1--4-6-6----1-1-6-8-8---------------------------|
E|---------------------------------------------------------------------------|

e|---------------------------------------------------------------------------|
B|---------------------------------------------------------------------------|
G|---------------------------------------------------------------------------|
D|---------------------------------------------------------------------------|
A|-1--1-3-3-----1-1-3-4-4----1--4-6-6----1-1-8-9-9---(1)---------------------|
E|---------------------------------------------------------------------------|


e|---------------------------------------------------------------------------|
B|---------------------------------------------------------------------------|
G|---------------------------------------------------------------------------|
D|-3h6-6----6p3-6----6-8-10----10s11-11-11----3h6-6----6-5-3----6-8-10-------|
A|---------------------------------------------------------------------------|
E|---------------------------------------------------------------------------|

e|---------------------------------------------------------------------------|
B|---------------------------------------------------------------------------|
G|-------------------------10-13-13---13-10-13---13-15-17---17-18-18b20------|
D|--11/13-13-13h16-16-15-----------------------------------------------------|
A|---------------------------------------------------------------------------|
E|---------------------------------------------------------------------------|

e|---------------------------------------------------------------------------|
B|----------------------------------------14-16-16~--------------------------|
G|-10-13-13---13-12h13p12-10---13-15-17--------------------------------------|
D|---------------------------------------------------------------------------|
A|---------------------------------------------------------------------------|
E|---------------------------------------------------------------------------|

\,,/ 

Repeat 3x:
_________________________________________________________________________________

e|---------------------------------------------------------------------------|
B|---------------------------------------------------------------------------|
G|-----------------

Agua Tabs – Jarabe de Palo Vsion 1

 Las demás versiones estan excelentes pero yo la toco así.

Intro (con el cuerpo de la guitarra hacer el ritmo de la percusión)

(*)
e|------------|------------||
B|--------P---|------P-----||
G|--------P---|------P--P--||
D|------P-----|----P-------||
A|------------|------------|| 
E|--P-P-------|--P---------||  (significa el ritmo de la percusión)

   Dm7                    Gm7               C7                 F
e||-------1-|------------------|---------|---------|---------|---------|---------|
B||---1-----|----P-------6-----|-------3-|---------|-------5-|---------|-------1-|
G||-----2---|----P-----------7-|---3-----|-----P---|---3-----|-----P---|---2-----|
D||-0-------|-------6/7----7---|-----3---|-----P---|-----5---|-----P---|-----3---|
A||---------|------------------|---------|---------|-3-------|---------|---------|
E||---------|-P-P--------------|-3-------|--P-P----|---------|--P-P----|-1-------|

 
e|-----------||
B|-/6-/8-/10-||
G|-/7-/9-/10-||
D|-----------||
A|-----------||
E|-----------||

* = (percusión) Es hacer el ritmo con el cuerpo de la guitarra, como la canción es lenta da tiempo de dejar 
las cuerdas sondando en lo que haces el ritmo, especialmente en el primer verso.

      
Dm7                Gm7    
Cómo quieres ser mi amiga
C7                  F      
Si por ti daría la vida,
Dm7                Gm7    
Si confundo tu sonrisa
Dm7                Gm7    
Por camelo si me miras.
Dm7      Gm7    C7     F    
Razón y piel, difícil mezcla,
Dm7      Gm7    C7     F 
Agua y sed, serio problema.

[Verse 2]
Dm7                Gm7    
Cómo quieres ser mi amiga
C7                  F      
Si por ti me perdería
Dm7                Gm7    
Si confundo tus caricias
C7                  F      
Por camelo si me mimas.
Dm7                Gm7    
Pasión y ley, difícil mezcla,
C7                  F      
Agua y sed, serio problema...

[Chorus]
       C7         Dm
Cuando uno tiene sed
         C7      Bb
Pero el agua no está cerca,
        C7         Dm
Cuando uno quiere beber
         C7           Bb
Pero el agua no está cerca.


[Bridge]
F          Dm7      A
Qué hacer, tú lo sabes,
Bb     F  Dm7       A
Conservar la distancia,
Bb      F  Dm7      A
Renunciar a lo natural,
Bb    F  Dm7           A
Y dejar que el agua corra.

Dm7                Gm7    
Cómo quieres ser mi amiga
C7                  F      
Cuando esta carta recibas,
Dm7                Gm7    
Un mensaje hay entre líneas,
C7                  F      
Cómo quieres ser mi amiga

[Chorus]

Words Of Love Tabs – The Mamas & The Papas Vsion 1

 WORDS OF LOVE

As recorded by The Mamas & The Papas
(From the 1966 Album THE MAMAS & THE PAPAS)

Words and Music by John Phillips

 Slowhand


Gtr I (E A D G B E) - 'John Phillips - Electric Guitar'


 Intro
 Shuffle Q=112(8=s8)
                        E          Abm/Eb       Dbm            Eb   Ab
 4/4
  Gtr I (Clean El. Gtr.)
  W          W           E  E  E E  E  E  E E    E  E  E  E  E  E E E
|----------|----------|-12-12-12-x-11-11-11-x-|--9--9--9--9--9-11---4--|
|----------|----------|-12-12-12-x-12-12-12-x-|--9--9--9--9--9-11---4--|
|----------|----------|-13-13-13-x-13-13-13-x-|--9--9--9--9--9-12---5--|
|----------|----------|-14-14-14-x-13-13-13-x-|-11-11-11-11-11-13---6--|
|----------|----------|-----------------------|------------------------|
|----------|----------|-----------------------|------------------------|


                                        1st Verse
                      Eb7                Ab7               Gb7
  +E  E E E E E E E   E E E E E E E E    E E E E E E E E   E E E E E E E E
|-(4)-4-4-x-4-4-4-x-|-----------------||-4-4-4-x-4-4-4-x-|-2-2-2-x-2-2-2-x--|
|-(4)-4-4-x-4-4-4-x-|-4-4-4-x-4-4-4-x-||-4-4-4-x-4-4-4-x-|-2-2-2-x-2-2-2-x--|
|-(5)-5-5-x-5-5-5-x-|-6-6-6-x-6-6-6-x-||-5-5-5-x-5-5-5-x-|-3-3-3-x-3-3-3-x--|
|-(6)-6-6-x-6-6-6-x-|-5-5-5-x-5-5-5-x-||-4-4-4-x-4-4-4-x-|-2-2-2-x-2-2-2-x--|
|-------------------|-6-6-6-x-6-6-6-x-||-6-6-6-x-6-6-6-x-|-4-4-4-x-4-4-4-x--|
|-------------------|-----------------||-4-4-4-x-4-4-4-x-|-2-2-2-x-2-2-2-x--|


  Cb7               Bb7     Eb7       Ab7               Gb7
  E E E E E E E E   E E E E E E E E   E E E E E E E E   E E E E E E E E
|-7-7-7-x-7-7-7-x-|-6-6-6-x---------|-4-4-4-x-4-4-4-x-|-2-2-2-x-2-2-2-x--|
|-7-7-7-x-7-7-7-x-|-6-6-6-x-4-4-4-x-|-4-4-4-x-4-4-4-x-|-2-2-2-x-2-2-2-x--|
|-8-8-8-x-8-8-8-x-|-7-7-7-x-6-6-6-x-|-5-5-5-x-5-5-5-x-|-3-3-3-x-3-3-3-x--|
|-7-7-7-x-7-7-7-x-|-6-6-6-x-5-5-5-x-|-4-4-4-x-4-4-4-x-|-2-2-2-x-2-2-2-x--|
|-9-9-9-x-9-9-9-x-|-8-8-8-x-6-6-6-x-|-6-6-6-x-6-6-6-x-|-4-4-4-x-4-4-4-x--|
|-7-7-7-x-7-7-7-x-|-6-6-6-x---------|-4-4-4-x-4-4-4-x-|-2-2-2-x-2-2-2-x--|


  Cb7               Bb7               Ab7               Gb7
  E E E E E E E E   E E E E E E E E   E E E E E E E E   E E E E E E E E
|-7-7-7-x-7-7-7-x-|-6-6-6-x-6-6-6-x-|-4-4-4-x-4-4-4-x-|-2-2-2-x-2-2-2-x--|
|-7-7-7-x-7-7-7-x-|-6-6-6-x-6-6-6-x-|-4-4-4-x-4-4-4-x-|-2-2-2-x-2-2-2-x--|
|-8-8-8-x-8-8-8-x-|-7-7-7-x-7-7-7-x-|-5-5-5-x-5-5-5-x-|-3-3-3-x-3-3-3-x--|
|-7-7-7-x-7-7-7-x-|-6-6-6-x-6-6-6-x-|-4-4-4-x-4-4-4-x-|-2-2-2-x-2-2-2-x--|
|-9-9-9-x-9-9-9-x-|-8-8-8-x-8-8-8-x-|-6-6-6-x-6-6-6-x-|-4-4-4-x-4-4-4-x--|
|-7-7-7-x-7-7-7-x-|-6-6-6-x-6-6-6-x-|-4-4-4-x-4-4-4-x-|-2-2-2-x-2-2-2-x--|


  Cb7               Bb7     A7       Ab7              Gb7
  E E E E E E E E   E E E E E E Q    E E E E E E Q    E E E E E E Q
|-7-7-7-x-7-7-7-x-|-6-6-6-6-5------|-4-4-4-4-4------|-2-2-2-2-2-------|
|-7-7-7-x-7-7-7-x-|-6-6-6-6-5------|-4-4-4-4-4------|-2-2-2-2-2-------|
|-8-8-8-x-8-8-8-x-|-7-7-7-7-6------|-5-5-5-5-5------|-3-3-3-3-3-------|
|-7-7-7-x-7-7-7-x-|-6-6-6-6-5------|-4-4-4-4-4------|-2-2-2-2-2-------|
|-9-9-9-x-9-9-9-x-|-8-8-8-8-7------|-6-6-6-6-6------|-4-4-4-4-4-------|
|-7-7-7-x-7-7-7-x-|-6-6-6-6-5------|-4-4-4-4-4------|-2-2-2-2-2-------|


                                    Bridge
                                  Straight Q=112
  E7               Eb7               Fm              Bbm
  E E E E E E Q    E E E E E E Q     Q  E E E Q  E   Q  E E E Q  E
|----------------|----------------||-1--1-1-1-1--1-|-1--1-1-1-1--1--|
|-5-5-5-5-5------|-4-4-4-4-4------||-1--1-1-1-1--1-|-2--2-2-2-2--2--|
|-7-7-7-7-7------|-6-6-6-6-6------||-1--1-1-1-1--1-|-3--3-3-3-3--3--|
|-6-6-6-6-6------|-5-5-5-5-5------||-3--3-3-3-3--3-|-3--3-3-3-3--3--|
|-7-7-7-7-7------|-6-6-6-6-6------||-3--3-3-3-3--3-|-1--1-1-1-1--1--|
|----------------|----------------||-1--1-1-1-1--1-|----------------|


                                Shuffle Q=112(8=s8)
  Gb              Eb7             Ab7             Gb7
  Q  E E

Irresistible Tabs – Fall Out Boy Vsion 1

 Fall out boy - Irresistible
 so if it's fucked up 
I'm sorry

Intro+Verse

E)-----------------2-5-2-5-----------| 
A)--0-2-0-2-2-5-2-5------------------|
D)-------------------------0-2-0-2--0|
G)-----------------------------------|
B)-----------------------------------|
e)-----------------------------------|
                                      x8

Pre-chorus

E)3----2----0|
A)5----5----2|
D)5----5----2|
G)4----4----0|
B)3----2----0|
e)3----2----0|

Chorus

E)x-x-7-7-7-5-5-5-3-3-3-3|
A)x-x-9-9-9-7-7-7-5-5-5-5|
D)x-x-9-9-9-7-7-7-5-5-5-5|
G)x-x-7-7-7-5-5-5-3-3-3-3|
B)x-x--------------------|
e)x-x--------------------|
                         x2

Guitar 1
E)7-7-7-7-10-10-10-10-5-5-5-5-12-12-12-12|
A)9-9-9-9-12-12-12-12-7-7-7-7-14-14-14-14|
D)9-9-9-9-12-12-12-12-7-7-7-7-14-14-14-14|
G)7-7-7-7-10-10-10-10-5-5-5-5-12-12-12-12|
B)---------------------------------------|
e)---------------------------------------|
                                         x2

Guitar 2

E)-----------------2-5-2-5-----------| 
A)--0-2-0-2-2-5-2-5------------------|
D)-------------------------0-2-0-2--0|
G)-----------------------------------|
B)-----------------------------------|
e)-----------------------------------|
                                     x2

Verse

E)-------|---------------2-5-2-5----------|
A)0-2-0-2|0-2-0-2-2-5-2-5-----------------|
D)-------|----------------------0-2-0-2--0|
G)-------|--------------------------------|
B)-------|--------------------------------|
e)-------|--------------------------------|
       x2                                x6

Pre-chorus

E)3----2----0|
A)5----5----2|
D)5----5----2|
G)4----4----0|
B)3----2----0|
e)3----2----0|

Chorus

E)x-x-7-7-7-5-5-5-3-3-3-3|
A)x-x-9-9-9-7-7-7-5-5-5-5|
D)x-x-9-9-9-7-7-7-5-5-5-5|
G)x-x-7-7-7-5-5-5-3-3-3-3|
B)x-x--------------------|
e)x-x--------------------|
                         x2

Guitar 1
E)7-7-7-7-10-10-10-10-5-5-5-5-12-12-12-12|
A)9-9-9-9-12-12-12-12-7-7-7-7-14-14-14-14|
D)9-9-9-9-12-12-12-12-7-7-7-7-14-14-14-14|
G)7-7-7-7-10-10-10-10-5-5-5-5-12-12-12-12|
B)---------------------------------------|
e)---------------------------------------|
                                         x2

Guitar 2

E)-----------------2-5-2-5-----------| 
A)--0-2-0-2-2-5-2-5------------------|
D)-------------------------0-2-0-2--0|
G)-----------------------------------|
B)-----------------------------------|
e)-----------------------------------|
                                     x2

Bridge 
Don't play until Patrick comes in

Guitar 1

E)---|-------------|
A)---|-------------|
D)---|-------------|
G)---|-------------|
B)---|--------15-12|
e)-14|-14-12-------|
   x16

E)----------------------------|
A)----------------------------|
D)----------------------------|
G)--------------11-9-11-------|
B)--12-10h12----------------12|
e)-----------------------10---|

E)-------------------------------------|
A)-------------------------------------|
D)-------------------------------------|
G)-------------------------------------|
B)-10h12----12-10----7----3/5/7b7-5-3-0|
e)-------10----------------------------|


Guitar 2

E)-----------------2-5-2-5-----------| 
A)--0-2-0-2-2-5-2-5------------------|
D)-------------------------0-2-0-2--0|
G)-----------------------------------|
B)-----------------------------------|
e)-----------------------------------|
                                     x2

Pre-chorus

E)3----2----0|
A)5----5----2|
D)5----5----2|
G)4----4----0|
B)3----2----0|
e)3----2----0|

Chorus

E)x-x-7-7-7-5-5-5-3-3-3-3|
A)x-x-9-9-9-7-7-7-5-5-5-5|
D)x-x-9-9-9-7-7-7-5-5-5-5|
G)x-x-7-7-7-5-5-5-3-3-3-3|
B)x-x--------------------|
e)x-x--------------------|
                         x2

Guitar 1
E)7-7-7-7-10-10-10-10-5-5-5-5-12-12-12-12|
A)9-9-9-9-12-12-12-12-7-7-7-7-14-14-14-14|
D)9-9-9-9-12-12-12-12-7-7-7-7-14-14-14-14|
G)7-7-7-7-10-10-10-10-5-5-5-5-12-12-12-12|
B)---------------------------------------|
e)---------------------------------------|
                     

Hillbilly Man Tabs – Gorillaz Vsion 1

 -------------------------------------------------------------------------------
                          HILLBILLY MAN - Gorillaz
-------------------------------------------------------------------------------
: Seismatters

Tuning: Standard E A D G B E


INTRO + FIRST HALF OF SONG (ends with 'Three lanes full')

e|-----------------6--4--3------------------------6---3---6---3--------------|
B|-4--4---6---4-6--4--------6--4--4--4---6---4-6--4--------------------------|
G|-5--5---5--------3--------------5--5---5--------3--------------------------|
D|-3--3---3--------5--------------3--3---3--------5--------------------------|
A|---------------------------------------------------------------------------|
E|---------------------------------------------------------------------------|


SECOND HALF OF SONG (starts with 'Got a ride in my heart')

e|---------------------------------------------------------------------------|
B|---------------------------------------------------------------------------|
G|-0--0----0--1-1-1----0--0----0--3-3-3--------------------------------------|
D|-1--1----1--3-3-3----1--1----1--5-5-5--------------------------------------|
A|-3--3----3--3-3-3----3--3----3--5-5-5--------------------------------------|
E|---------------------------------------------------------------------------|

Moon On The Water chords – Beck Vsion 1

 Moon On The Water
Beck
As interpreted by: Daniel P. Clark (6ftdan @ Gmail/Twitter)

(Same key as the male vocalist.  Female vocalist shifts key a half step down.)

Intro:


E|-----0-----------5-----------------7-------------|
B|-------0-----------5-----------4h5-----------2-4-|
G|---------3-----------8-------6-------------4-----|
D|---2-----------------------6-------------4-------|
A|---------------7---------4-------------2---------|
E|-0-----------5-----------------------------------|

             (extra for instrumental parts only)
E|-----0-----|----0--------0---------------|
B|-------0---|---0-0---------0-------------|
G|---------2-|--2---2----------2-----------|
D|---2-------|-2-----2---2-----------------|
A|-0---------|---------0-------------------|
E|-----------|-----------------------------|


 E A2    
Full moon sways
 C#m B A2  
Gently in the night of one fine day
 E A2  
On my way
 C#m B A2   
Looking for a moment with my dear

 E A2    
Full moon waves
 C#m B A2   
Slowly on the surface of the lake
 E A2    
You are there
 C#m B A2    
Smiling in my arms for all those years

        C#m   
What a fool!
   A2 E        
I don't know about tomorrow
 B F#m 
What it's like to be
 A2  
Ah~

       C#m  
I was sure
           A2 E  
'Couldn't let myself to go
 B F#m  
Even though I feel
 A2      
The end

 E A2      
Oh my fair...
 C#m B A2    
Floating like a bird that's in her wings
 E A2    
You are there
 C#m B A2    
Smiling in my arms for all those years

        C#m   
What a fool!
   A2 E        
I don't know about tomorrow
 B F#m 
What it's like to be
 A2  
Ah~

       C#m  
I was sure
           A2 E  
'Couldn't let myself to go
 B F#m  
Even though I feel
 A2      
The end

(Instrumental: Intro x2)

        C#m   
What a fool!
   A2 E        
I don't know about tomorrow
 B F#m 
What it's like to be
 A2  
Ah~

       C#m  
I was sure
           A2 E  
'Couldn't let myself to go
 B F#m  
Even though I feel
 A2      
The end

 E A2    
Full moon sways
 C#m B A2  
Gently in the night of one fine day
 E A2    
You are there
 C#m B A2    
Smiling in my arms for all those years

Daddy Cool chords – Boney M. Vsion 1

 Dm C Am Dm 
She's crazy like a fool, what about it, Daddy Cool?

 Dm C Am Dm Dm C Am Dm 

Refr.:
 Dm C Am Dm 
She's crazy like a fool, what about it, Daddy Cool?
                  C Am Dm 
I'm crazy like a fool, what about it, Daddy Cool?
              C Am Dm 
Daddy, Daddy Cool, Daddy, Daddy Cool.
              C Am Dm 
Daddy, Daddy Cool, Daddy, Daddy Cool.

 Dm C Am Dm Dm C Am Dm 

Refr.:
 Dm C Am Dm 
She's crazy like a fool, what about it, Daddy Cool?
                  C Am Dm 
I'm crazy like a fool, what about it, Daddy Cool?
              C Am Dm 
Daddy, Daddy Cool, Daddy, Daddy Cool.
              C Am Dm 
Daddy, Daddy Cool, Daddy, Daddy Cool.


Refr.:
 Dm C Am Dm 
She's crazy like a fool, what about it, Daddy Cool?
                  C Am Dm 
I'm crazy like a fool, what about it, Daddy Cool?
              C Am Dm 
Daddy, Daddy Cool, Daddy, Daddy Cool.
              C Am Dm 
Daddy, Daddy Cool, Daddy, Daddy Cool.


(spoken) 
She's crazy about her daddy 
Oh she believes in him 
She loves her daddy

Refr.:
 Dm C Am Dm 
She's crazy like a fool, what about it, Daddy Cool?
                  C Am Dm 
I'm crazy like a fool, what about it, Daddy Cool?
              C Am Dm 
Daddy, Daddy Cool, Daddy, Daddy Cool.
              C Am Dm 
Daddy, Daddy Cool, Daddy, Daddy Cool.

Time To Kill Tabs – Overkill Vsion 1

 OVERKILL - TIME TO KILL
(The Years Of Decay, 1989)

Key
= after note = vibrato
^ after note = heavy vibrato
\\ = slide down
/ = slide up
+ = tap
h = hammer
p = pull
n = natural harmonic
s = pinching harmonic (squeal)
* = tremolo pick
t = trill
b = bend
|-3-| = triplet

n number above the tab = play the first part then the first finishing part
                         play the first part a second time and then play the second finishing part
                         etc.

Riff 1

E ------------------------------------------------------------------
B ------------------------------------------------------------------
G ------------------------------------------------------------------
D -2---------------5---------------5---------5---------2------------
A -2---------------5---------------5---------5---------2------------
E -0---------0-2-0-3---------0-2-0-3---0-2-0-3---0-2-3-0------------

Riff 1A

E --------------------------------------------------------------------------
B --------------------------------------------------------------------------
G --------------------------------------------------------------------------
D -9---------9-11-9-12---------9-11-9-12---9-11-9-12---9-11-12-9------------
A --------------------------------------------------------------------------
E --------------------------------------------------------------------------

Riff 1B

E -----------------------------------------------------
B -----------------------------------------------------
G -----------------------------------------------------
D -2---------------5---------------5---------5---------
A -2---------------5---------------5---------5---------
E -0---------0-2-0-3---------0-2-0-3---0-2-0-3---0-2-3-

Riff 1C

E -------------------------------------------------------------
B -------------------------------------------------------------
G -------------------------------------------------------------
D -9---------9-11-9-12---------9-11-9-12---9-11-9-12---9-11-12-
A -------------------------------------------------------------
E -------------------------------------------------------------

Riff 1D

E ---------------------------------------------------------
B -15b17------------18b20------------18b20------18b20------
G ---------------------------------------------------------
D ---------------------------------------------------------
A ---------------------------------------------------------
E ---------------------------------------------------------

Riff 2

E ---------------------------------------------------------------------------------
B ---------------------------------------------------------------------------------
G ---------------------------------------------------------------------------------
D -2---------5---------3---------6---5---2---------5---------3---------5-----5-----
A -2---------5---------3---------6---5---2---------5---------3---------5-----5-----
E -0---0-0-0-3---0-0-0-1---0-0-0-4---3---0---0-0-0-3---0-0-0-1---0-0-0-3-0-0-3-0-0-

Riff 2A

E ------------------------------
B ------------------------------
G ------------------------------
D ----2---2---2---2---2---2---2-
A ----2---2---2---2---2---2---2-
E ----0---0---0---0---0---0---0-

Riff 2B

E -----------------------------------------------------------------------------------------------------------
B -----------------------------------------------------------------------------------------------------------
G -----------------------------------------------------------------------------------------------------------
D -2---------5---------3---------6---5---2---------5---------3---------5-----5-----2---------5-----5-----2---
A -2---------5---------3---------6---5---2---------5---------3---------5-----5-----2---------5-----5-----2---
E -0---0-0-0-3---0-0-0-1---0-0-0-4---3---0---0-0-0-3---0-0-0-1---0-0-0-3-0-0-3-0-0-0---0-0-0-3-0-0-3-0-0-0---

E -------------------
B -------------------
G -------------------
D -------5-----5-----
A -------5-----5-----
E -0-0-0-3-

No Good In Goodbye Tabs – The Script Vsion 1

 NO GOOD IN GOODBYE      -       the Script

Capo 2

Intro:
     1           2           3           4
e|--/----------------------------------------------/
B|5s/10-10-10-10-10-10-10-10-10-10-10-10-10-10-10s8/
G|--/----------------------------------------------/
D|--/----------------------------------------------/
A|--/----------------------------------------------/
E|--/----------------------------------------------/

  1       2       3       4        
e|--------------------------------/
B|8-8-8-8-8-8-8-8-8-8-8-8-8-8-8-8s/
G|--------------------------------/
D|--------------------------------/
A|--------------------------------/
E|--------------------------------/

  1           2           3           4
e|-----------------------------------------------/
B|12-12-12-12-12-12-12-12-12-12-12-12-12-12-12s14/
G|-----------------------------------------------/
D|-----------------------------------------------/
A|-----------------------------------------------/
E|-----------------------------------------------/

  1           2           3           4
e|---------------------------------------------/
B|14s10-10-10-10-10-10-10-10-10-10-10-10s5-5-5s/
G|---------------------------------------------/
D|---------------------------------------------/
A|---------------------------------------------/
E|---------------------------------------------/

A  Aaa – Em7  aa – G  aa – D  aah     2x 


  Em/B                              C
  1       2       3       4       1       2       3       4
e|3-------3-------3-------3---5--/3-------3-------3-------3---5--/
B|----5-------5-------5----------/----5-------5-------5----------/
G|--4---4---4---4---4---4---4---4/--5---5---5---5---5---5---5---5/
D|-------------------------------/-------------------------------/
A|-------------------------------/-------------------------------/
E|-------------------------------/-------------------------------/
1  All the things that we've lost   Breaking up comes at a cost
2  Every word I try to choose       Either way I'm gonna lose


  G/D                               D
  1       2       3       4       1       2       3       4
e|7-------7-------7-------8---7--/5-------5-------5-------7------/
B|----8-------8-------8----------/----7-------7-------7-------7--/
G|--7---7---7---7---7---7---7---7/--7---7---7---7---7---7---7---7/
D|-------------------------------/-------------------------------/
A|-------------------------------/-------------------------------/
E|-------------------------------/-------------------------------/
1  I know i'll miss this mistake                                  
2  Can't take the ache from heart -  break           Oh but as you


  C                                 D
  1       2       3       4       1       2       3       4
e|3-------3-------3-------3---5--/5-------5-------5-------10-----/
B|----5-------5-------5----------/----7-------7-------7----------/
G|--5---5---5---5---5---5---5---5/--7---7---7---7---7---7--------/
D|-------------------------------/-------------------------------/
A|-------------------------------/-------------------------------/
E|-------------------------------/-------------------------------/
2  walk away          you don’t     hear me say


Chorus:
A 
    Where's the "good" in goodbye
Em7 
      Where's the "nice" in nice try
G 
    Where's the "us" in trust gone
D                                 A 
    Where's the "soul" in soldier     on
Now I'm the "low" in lonely
Em7 
     ‘Cos I don't own you only
G 
    I can take this mistake but
D 
    I can't take the "ache" from heartbreak

A        Em7
   No –        oh 
                                     G        D         
I can't take the "ache from heart –    break  


  Em/B                              C
  1       2       3       4       1       2       3       4
e|3-------3-------3-------3---5--/3-------3-------3-------3---5--/
B|----5-------5-------5----------/----5-------5-------5----------/
G|--4---4---4---4---4---4---4---4/--5---5---5---5---5---5-

Fade Tabs – Alan Walker Vsion 1

 -------------------------------------------------------------------------------
                             FADE - ALAN WALKER
-------------------------------------------------------------------------------
:Daniel Hwang

Tuning:Standard (EADGBE)

e|-2-2-2-2/6--6/11-11-11-11--9/6-6-6-6-6--------------------------------------------------------|
B|--------------------------------------6-6-6-6-------------------------------------------------|
G|----------------------------------------------------------------------------------------------|
D|----------------------------------------------------------------------------------------------|
A|----------------------------------------------------------------------------------------------|
E|----------------------------------------------------------------------------------------------|
                                                              
e|-2-2-2-2/6--6/11-11-11-11--9/6-6-6-6-6--------------------------------------------------------|
B|--------------------------------------6--6--6--6--6--6--6-6-6-6-------------------------------|
G|----------------------------------------------------------------------------------------------|
D|----------------------------------------------------------------------------------------------|
A|----------------------------------------------------------------------------------------------|
E|----------------------------------------------------------------------------------------------|
                                                                                                 
e|-2-2-2-2-2-2--6-6-6-6/11--11-11-11-11-11-11--9-9--6--6--6--6--6--6--6-6-6-6-------------------|
B|---------------------------------------------------------------------------6-6-6-6-6-6-6-6----|
G|----------------------------------------------------------------------------------------------|
D|----------------------------------------------------------------------------------------------|
A|----------------------------------------------------------------------------------------------|
E|----------------------------------------------------------------------------------------------|

e|-2-2-2-2--6-6--14-14-13-13--11-11-11--9-9-9--4-4--6-6-6-6--9-7-6-4-2-4--4-4-4-4---------------|
B|----------------------------------------------------------------------------------------------|
G|----------------------------------------------------------------------------------------------|
D|----------------------------------------------------------------------------------------------|
A|----------------------------------------------------------------------------------------------|
E|----------------------------------------------------------------------------------------------|
                                                  
e|-4-4--1-1--2-2-2-2--6-6--14-14-13-13--11-11-11--9-9-9--4-4--6-6-6-6--9-7-6-4-1----------------|
B|----------------------------------------------------------------------------------------------|
G|----------------------------------------------------------------------------------------------|
D|----------------------------------------------------------------------------------------------|
A|----------------------------------------------------------------------------------------------|
E|----------------------------------------------------------------------------------------------|

e|-2-2--4--2-2-2-2-2--6-6--14-14-13-13--11-11-11--9-9-9--4-4--6-6-6-6--9-7-6-4-1-4--4-4-4-4-----|
B|----------------------------------------------------------------------------------------------|
G|----------------------------------------------------------------------------------------------|
D|----------------------------------------------------------------------------------------------|
A|----------------------------------------------------------------------------------------------|
E|----------------------------------------------------------------------------------------

Hawaiian Roller Coaster Ride Tabs – Mark Kealii Hoomalu Vsion 1

 --------------------------------------------------------------------
                  Hawaiian Roller Coaster Ride 
by Mark Keali'i Ho'omalu and The Kamehameha Schools Children's Chorus
--------------------------------------------------------------------
From the Original Soundtrack of Lilo and Stitch

Listen it here : https://www.youtube.com/watch?v=L4X1_3VipWs

: Laviru93doodle aka Laviru K. 

Guitar and Ukulele tabs

these are the licks that are played through the song. 

---------------------Guitar Tabs--------------------------

LICK n°1:
e|-------------------5-------|----------------------5-------|
B|-6--6--6-----6--------8-6--|-6--6--6--6-----6--------8-6--|
G|----------7-----7----------|-------------7-----7----------|
D|---------------------------|------------------------------|
A|---------------------------|------------------------------|
E|---------------------------|------------------------------|

LICK n°2:
e|---------------------------|------------------------------|
B|-6--6--6-----6-----6--8-6--|-6--6--6--6-----6-----6--8-6--|
G|----------7-----7----------|-------------7-----7----------|
D|---------------------------|------------------------------|
A|---------------------------|------------------------------|
E|---------------------------|------------------------------|

LICK n°3:
e|-8-8-8---------------------|----6-6-6---------------------|
B|--------8--8--8--8--10--8--|-----------6--6--6--6--8--6---|
G|---------------------------|------------------------------|
D|---------------------------|------------------------------|
A|---------------------------|------------------------------|
E|---------------------------|------------------------------|


---------------------Ukulule Tabs--------------------------

LICK n°1:
A|-------------------0-------|---------------------0-------|
E|-1--1--1-----1--------3-1--|-1-1--1--1-----1--------3-1--|
C|----------2-----2----------|------------2-----2----------|
G|---------------------------|-----------------------------|

LICK n°2:
A|---------------------------|-----------------------------|
E|-1--1--1-----1-----1--3-1--|-1-1--1--1-----1-----1--3-1--|
C|----------2-----2----------|------------2-----2----------|
G|---------------------------|-----------------------------|

LICK n°3:
A|-3-3-3---------------------|---1-1-1---------------------|
E|--------3--3--3--3--5--3---|----------1--1--1--1--3--1---|
C|---------------------------|-----------------------------|
G|---------------------------|-----------------------------|

1 Malam chords – d bagindas

 INTRO:  Am Am 
Rasanya diriku
                    E 
Ingin mengulang kembali itu
 Dm 
Dalam dekapanmu
                  Am 
Walau sekejap ku rasa rindu
 Am E                      
Tak tahu mengapa ku tak bisa melupakan itu
 Dm Am 
Dalam belaianmu walau sebentar engkau mencumbu

 F C 
Tak tahu harus berkata apa
 Dm Am 
Yang pasti ku rasakan bahagia
 F C 
Bibirku hanya diam membisu
 Dm E 
Tak bisa diungkapkan dengan kata

REFF:
 Am 
Satu malam ku rasa bahagia
 Am 
Satu malam kau bawa aku terbang
       G 
Ingin rasanya ku mengulang kembali
         F 
Ingin sekali engkau membelaiku lagi
     E 
Inginnya bukan hanya semalam

Int:  Am D  -  D#  -  E Am E                      
Tak tahu mengapa ku tak bisa melupakan itu
 Dm Am 
Dalam belaianmu walau sebentar engkau mencumbu

 F C 
Tak tahu harus berkata apa
 Dm Am 
Yang pasti ku rasakan bahagia
 F C 
Bibirku hanya diam membisu
 Dm E 
Tak bisa diungkapkan dengan kata

 Am 
Satu malam ku rasa bahagia
 Am 
Satu malam kau bawa aku terbang
       G 
Ingin rasanya ku mengulang kembali
         F 
Ingin sekali engkau membelaiku lagi
     E 
Inginnya bukan hanya semalam

 Am 
Satu malam menjadikan cerita
 Am 
Satu malam membuat aku gila
         G 
Ingin rasanya ku mengulang kembali
         F 
Ingin sekali engkau membelaiku lagi
      E 
Inginnya bukan hanya semalam

Int:  F C Dm Am 
   F   C Dm E Am 
Ohh... Satu malam ku rasa bahagia
 Am 
Satu malam kau bawa aku terbang
       G 
Ingin rasanya ku mengulang kembali
         F 
Ingin sekali engkau membelaiku lagi
     E 
Inginnya bukan hanya semalam

 Am 
Satu malam menjadikan cerita
 Am 
Satu malam membuat aku gila
         G 
Ingin rasanya ku mengulang kembali
         F 
Ingin sekali engkau membelaiku lagi
      E 
Inginnya bukan hanya semalam

Outro:  Am 

Back Street Girl Tabs – The Rolling Stones Vsion 1

 BACK STREET GIRL

As recorded by The Rolling Stones
(From the 1967 Album FLOWERS)

Words and Music by Mick Jagger & Keith Richards

 Slowhand


Gtr I (D G C F A D) - 'Keith Richards - Acoustic Guitar (1 step down)'


   Intro
    Q=154
    E/A        D/A        A
   3/4
    Gtr I (Ac. Gtr. / 1 step down: D G C F A D) 
    Q  Q  Q    Q  Q  Q    E E E E E E   Q  Q  Q
||-----4-----|----2-----|-------5-----|----5--5--|
||o-------5--|-------3--|-----2---3-5-|----2--2--|
||-----------|----------|---2---------|----2--2--|
||-----------|----------|-------------|----2--2--|
||o-0--------|-0--------|-0-----------|-0--------|
||-----------|----------|-------------|----------|


  E           D           A
  E E Q  Q    E E Q  Q    E E E E E E   Q  E E Q
|-----0-----|-----------|---------5---|----5-5-5---||
|---0----0--|-----3-----|-----2-----3-|-2--2-2-2--o||
|-----------|---2----2--|-------------|----2-2-2---||
|-----------|-0---------|---2---2-----|----2-2-2---||
|-----------|-----------|-0-----------|-----------o||
|-0---------|-----------|-------------|------------||


   1st - 4th Verses
    $
    $$
    E/A        D/A        A
    Q  Q  Q    Q  Q  Q    E E E E E E   Q  Q  Q
||-----4-----|----2-----|-------5-----|----5--5--|
||o-------5--|-------3--|-----2---3-5-|----2--2--|
||-----------|----------|---2---------|----2--2--|
||-----------|----------|-------------|----2--2--|
||o-0--------|-0--------|-0-----------|-0--------|
||-----------|----------|-------------|----------|


  E           D           A
  E E Q  Q    E E Q  Q    E E E E E E   Q  E E Q
|-----0-----|-----------|---------5---|----5-5-5--|
|---0----0--|-----3-----|-----2-----3-|-2--2-2-2--|
|-----------|---2----2--|-------------|----2-2-2--|
|-----------|-0---------|---2---2-----|----2-2-2--|
|-----------|-----------|-0-----------|-----------|
|-0---------|-----------|-------------|-----------|


  E/A        D/A        A
  Q  Q  Q    Q  Q  Q    E E E E E E   Q  Q  Q
|----4-----|----2-----|-------5-----|----5--5--|
|-------5--|-------3--|-----2---3-5-|----2--2--|
|----------|----------|---2---------|----2--2--|
|----------|----------|-------------|----2--2--|
|-0--------|-0--------|-0-----------|-0--------|
|----------|----------|-------------|----------|


  E           D           A
  E E Q  Q    E E Q  Q    E E E E E E   Q  E E Q
|-----0-----|-----------|---------5---|----5-5-5--||
|---0----0--|-----3-----|-----2-----3-|-2--2-2-2--||
|-----------|---2----2--|-------------|----2-2-2--||
|-----------|-0---------|---2---2-----|----2-2-2--||
|-----------|-----------|-0-----------|-----------||
|-0---------|-----------|-------------|-----------||


 Pre-Chorus
  Bm            F#7/A#        Bm
  E E E E E E   E E E E E E   E E E E E E   E E E E E E
|-------2-----|-------0-----|-------2-----|-------2-----|
|-----3---3---|-----2---2---|---------3---|---------3---|
|---4-------4-|---3-------3-|-----4-----4-|-----4-----4-|
|-------------|-------------|---4---------|---4---------|
|-2-----------|-1-----------|-2-----------|-2-----------|
|-------------|-------------|-------------|-------------|


  C#m           D             A
  E E E E E E   E E E E E E   E E E E E E
|-------4-----|-------2-----|-------------|
|---------5---|-----3---3---|-------2-----|
|-----6-----6-|---2-------2-|-----2---2---|
|---6---------|-0-----------|---2-------2-|
|-4-----------|-------------|-0-----------|
|-------------|-------------|-------------|


  E
  Q  E E E E   Q  E E E E   Q  E E E E   Q  E E E E
|----0-0-0-0-|----0-0-0-0-|----0-0-0-0-|----0-0-0-0-||
|----0-0-0-0-|----0-0-0-0-|----0-0-0-0-|----0-0-0-0-||
|----1-1-1-1-|----1-1-1-1-|----1-1-1-1-|----1-1-1-1-||
|----2-2-2-2-|----2-2-2-2-|----2-2-2-2-|----2-2-2-2-||
|----2-2-2-2-|----2-2-2-2-|----2-2-2-2-|----2-2-2-2-||
|-0--0-0-0-0-|-0--0-0-0-0-|-0--0-0-0-0-|-0--0-0-0-0-||


 Chorus
  E/A        D/A        A
  Q  Q  Q    Q  Q  Q    E E E E E E   Q  Q  Q
|----4-----|----2-----|-------5-----|----5--5--|
|-------5--|------

Dad chords – Neele Ternes Vsion 1

 Bb 
 I never told you how
 F 
 How much you mean to me
 Gm 
 What in the world I would do
 Eb Gm F Eb 
 I just never made it through to you, oh, to you

               Bb 
There goes a day, there goes a week
           F 
So many goals I had to reach
            Gm 
The more I did, the less I cared
            Eb 
The more I miss the love you’ve shared
              Bb 
If life is a song, somehow it’s sad
                  F 
I don’t know the words without you, Dad
                   Gm 
You’ve been on my mind all the time
                 Eb 
And I’m missing you
              Gm F Eb 
Home used to be just some walls that I know
                        Gm F Eb 
But the truth is that home means nothing without you


Interlude:

 Bb F Gm Eb Gm F Eb Bb 
Truth is my home means nothing without you

Trouble Tabs – Cage The Elephant Vsion 1

 -------------------------------------------------------------------------------
                             Trouble - cage the elephant
-------------------------------------------------------------------------------
:


Tuning:

e|---------------------------------------8-----------------8-----10--12------|
B|-----5--------9--------10----------------8-------12--------8---10--12------|
G|---0---0----9--9-9---9----9-75757575-9-----9---9---9-9-9-----9-10--12------|
D|-2--------6-----6--7-------------------------9------9----------------------|
A|---------------------------------------------------------------------------|
E|---------------------------------------------------------------------------|
"ooooo, ooo"
e|---8-----------------8--------8--------8-----------------8--------8--------|
B|-----8-------12--------8--------8--------8-------12--------8--------8------|
G|-9-----9---9---9-9-9-----9-10-----10-9-----9---9---9-9-9-----9-10-----10---|
D|---------9------9----------------------------9------9----------------------|
A|---------------------------------------------------------------------------|
E|---------------------------------------------------------------------------|

e|----13-------------12----------12-------------12----------12---------------|
B|-------13-------12---12--12-------13----13-------13----------13------------|
G|-12-------12-13--------13---14-------14----14-------14-12-------12---------|
D|---------------------------------------------------------------------------|
A|---------------------------------------------------------------------------|
E|---------------------------------------------------------------------------|

e|-------12----------12---------------------------------------------------------|
B|----12---12--12----------13----13----13-13~-----------------------------------|
G|-13--------13---14----14----14----14------------------------------------------|
D|------------------------------------------------------------------------------|
A|------------------------------------------------------------------------------|
E|------------------------------------------------------------------------------|
(Palm mute) "we were at the table, by the window in the view.. "
e|---------------------------------------------------------------------------|
B|---------------------------------------------------------------------------|
G|---------------------------------------------------------------------------|
D|--5555--9999------------------5555--9999-----------------------------------|
A|--3333--7777--7777--3333------3333--7777--77773----------------------------|
E|--------------5555--1111-(x2)-------------55551----------------------------|
"got so much to loose, got so much to prove"
e|-----------------------------------------------------------------------------|
B|-----------------------------------------------------------------------------|
G|-----------------------------------------------------------------------------|
D|-----------------------------------------------------------------------------|
A|-0-0----------------0-0------------------------------------------------------|
E|----4321-1234-(x2)-----4321--------------------------------------------------|
                    "trouble on my left, trouble on my right"
e|---8---------7-------------------------------------------------------------|
B|-----8-----9---9-|8---8---9---9---10---10---13---10-------|----------------|
G|-9-----9-9-------|--9---9---9---9----9----9----9----9-(x2)|----------------|
D|---------------------------------------------------------------------------|
A|---------------------------------------------------------------------------|
E|---------------------------------------------------------------------------|

e|----12-------------12----------12------------------------------------------|
B|-------13-------12---12--12-------13----13----13----13----13---------------|
G|-12-------12-13--------13---14-------14----14----1

Mountains Tabs – Message To Bears Vsion 1

 -------------------------------------------------------------------------------
                             SONG NAME - Band Name
-------------------------------------------------------------------------------
: Daniel Ruggierio Baker
 Ratdoodle8

I got this tab from this video so if you want you can just 
go watch that: https://www.youtube.com/watch?v=GjIrpMZUp7s

Tuning: DADF#AD

Capo 4 (tab relative to capo)

D |---------------------------------------------------------------------------|
A |-5---5---5---5---5---5---5---5---4---4---4---4---4---4---4---4-------------|
F#|---0---0---0---0---0---0---0---0---0---0---0---0---0---0---0---0-----------|
D |---------------------------------------------------------------------------|
A |---------------------------------------------------------------------------|
D |---------------------------------------------------------------------------|

D |---------------------------------------------------------------------------|
A |-5---5---5---5---5---5---5---5---9---9---9---9---12---12---12---12---------|
F#|---0---0---0---0---0---0---0---0---0---0---0---0----0----0----0----0-------|   x2
D |---------------------------------------------------------------------------|
A |---------------------------------------------------------------------------|
D |---------------------------------------------------------------------------|

And we could run away
D |-0-------2---0-------0-----------0-----------0-----------------------------|
A |-------------------------4-----------2-------------------------------------|
F#|-----0-----------0-----------0-----------0---------------------------------|
D |---4-------4---4-------4---4-------4---4-------4---------------------------|
A |-2-----2-----2-----2-----2-----2-----2-----2-------------------------------|
D |---------------------------------------------------------------------------|

Before the light of day 
D |---------2---0-------0-----------0-----------0-----------------------------|
A |-4-----------------------4-----------2-------------------------------------|
F#|-----0-----------0-----------0-----------0---------------------------------|
D |---4-------4---4-------4---4-------4---4-------4---------------------------|
A |-0-----0-----0-----0-----0-----0-----0-----0-------------------------------|
D |---------------------------------------------------------------------------|

You know we always could 
D |-0-------2---0-------0-----------0-----------0-----------------------------|
A |-------------------------4-----------2-------------------------------------|
F#|-----0-----------0-----------0-----------0---------------------------------|
D |---4-------4---4-------4---4-------4---4-------4---------------------------|
A |---------------------------------------------------------------------------|
D |-2-----2-----2-----2-----2-----2-----2-----2-------------------------------|

The mountains say, the mountains say
D |-4-------4---4-------4---7-------7---7-------7-----------------------------|
A |---------------------------------------------------------------------------|
F#|-----0-----------0-----------0-----------0---------------------------------|
D |---4-------4---4-------4---4-------4---4-------4---------------------------|
A |---------------------------------------------------------------------------|
D |-0-----0-----0-----0-----0-----0-----0-----0-------------------------------|


you can figure out for your self how many times that repeats, but that's pretty much the whole thing.



************************************

| /   slide up
| \   slide down
| h   hammer-on
| p   pull-off
| ~   vibrato
| +   harmonic
| x   Mute note
| b   Bend
| pb  Pre-bend
| br  Bend release
| pbr Pre-bend release
| brb Bend release bend

************************************

Medication chords – Queens of the Stone Age Vsion 1

 All the song is played in 5 Chords
In the intro the guitar make a quick -i didnt know how many-. I make a 
little pull-off from the 8th fret of the four string (A# or Bb)to the 6th fret 
from the same string (G# or Ab). Sound good in a few part of song, play with it and enjoy

[ A# G# A# G# ..]  A# A# 
Medication for us all, it is a new way
               F# Db G#  
& we're gonna take it cause we love it
 B A# 
Don't you know?

 A# 
Is this the dose you've been dreamin' of?
A revelation from a gun
Doesn't matter
     F# Db G# B A# 
Overtaken, mine was yours, now overthrown

 A# 
Just copulation in a song
I'mso contagious, can I c**?
In the new way
           F# Db G# B A# 
All of us cast asides became what has become

 A# 
Medication for us all
You think you know me, well you're wrong
Doesn't matter
           F# Db G# B A# 
All of us cast asides became what has become


*Also you can hear the version of Olivier Libaux (from "Uncovered Queens of the Stone Age")
and make it acoustic, its in the same tone.

Greetings from Argentina