Tag: 4

Attention Chords version 4 by Charlie Puth

Capo 6th fret

[Verse 1]
Am                                                       G
You've been runnin' round, runnin' round, runnin' round throwin' that dirt all on my name
Em                                              F
'Cause you knew that I, knew that I, knew that I'd call you up
Am                                         G
You've been going round, going round, going round every party in LA
Em                                             F
'Cause you knew that I, knew that I, knew that I'd be at one

[Pre-Chorus]
Am                             G
I know that dress is karma, perfume regret
Em                                F
You got me thinking 'bout when you were mine
Am                             G
And now I'm all up on ya, what you expect
Em                             F
But you're not coming home with me tonight

[Chorus]
Am
You just want attention
Em
You don't want my heart
              G                                    F
Maybe you just hate the thought of me with someone new
Am
Yeah, you just want attention
Em
I knew from the start
                G                      F
You're just making sure I'm never gettin' over you

[Verse 2]
Am                                                       G
You've been runnin' round, runnin' round, runnin' round throwin' that dirt all on my name
Em                                               F
'Cause you knew that I, knew that I, knew that I'd call you up
Am                                         G
Baby, now that we're, now that we're, now that we're right here standing face to face
Em                                             F
You already know, already know, already know that you won
Ohh

[Pre-Chorus]
Am                             G
I know that dress is karma, perfume regret
Em                                 F
You got me thinking 'bout when you were mine
Am                             G
And now I'm all up on ya, what you expect
Em                              F
But you're not coming home with me tonight

[Chorus]
Am
You just want attention
Em
You don't want my heart
              G                                    F
Maybe you just hate the thought of me with someone new
Am
Yeah, you just want attention
Em
I knew from the start
                G                      F
You're just making sure I'm never gettin' over you

[Bridge]
Am
What are you doin' to me?
Em                   
What are you doin', huh? 
G
What are you doin' to me?
F                 
What are you doin', huh? 
Am
What are you doin' to me?
Em
What are you doin', huh? 
G
What are you doin' to me?
F           
What are you doin', huh?

[Pre-Chorus]
Am                             G
I know that dress is karma, perfume regret
Em                                F
You got me thinking 'bout when you were mine
Am                             G
And now I'm all up on ya, what you expect
Em                             F
But you're not coming home with me tonight

[Chorus]
Am
 
Am
You just want attention
Em
You don't want my heart
              G                                    F
Maybe you just hate the thought of me with someone new
Am
Yeah, you just want attention
Em
I knew from the start
                G                      F
You're just making sure I'm never gettin' over you
Suggest correction

Viva Las Vegas chords – Elvis Presley Vsion 4

 VIVA LAS VEGAS (Movie Version) - Elvis Presley
From the movie of the same name
 Del Bradley             NO CAPO
(Tempo Fast and Upbeat)

There are some very good versions up here but this is the way I play it and
wanted to share my alternative version which has a little more flavour perhaps.
---------------------------------------------------------
If you like it please rate and/or comment, that would be cool thank you :)
---------------------------------------------------------

Intro:  G G G Gadd9 G G  |  G G G Gadd9 G G  |  G G G Gadd9 G G  |  G G G Gadd9 G G  

VERSE:1
 G Gadd9 G          
Bright light city gonna set    my soul
 G Em G     
Gonna set my  soul on fire
                                 Gadd9 G 
Got a whole lot of money that's ready  to burn,
    Em G G         
So get those stakes up higher
 Em Em7 Em 
 There's a thousand pretty women waitin' out there
                           Em7 Em      
And they're all livin the devil may care
                  Em7 Em Em7        
And I'm just the devil with love to spare, so

CHORUS
 C G G C G G 
Viva Las Vegas,    Viva Las Vegas


VERSE:2
 G Gadd9 G 
How I wish that there  were more
          Em G 
Than the twenty-four hours in the day
                          Gadd9 G 
Cause even if there were forty  more
                    Em G    
I wouldn't sleep a minute away
    Em Em7 Em Em7 Em 
OH there's black jack and poker and the roulette wheel
           Em7 Em Em7 Em 
A fortune won and lost on every deal
 Em Em7 Em 
All you need's a strong heart and a nerve of steel

CHORUS
 C G G C G G 
Viva Las Vegas,    Viva Las Vegas


BRIDGE
 C Am7 C  
Viva Las Vegas with you neon flashin'
 C 
And your one arm bandits crashin'
 Am7 G G 
And  all those hopes down the drain
 C Am7 C 
Viva Las Vegas turnin' day into nighttime
 Am7 C      
Turnin' night into daytime
 Am7 Am Am7 Am A A7 D D D D D D D 
If you see it  once you'll never be the same a-gain ! ! ! !

VERSE:3
           G 
I'm gonna keep on the run
           Gadd9 G 
I'm gonna have  me some fun
       Em G G 
If it costs me my very last dime
                                 Gadd9 G 
If I wind up broke up well I'll always remember
            Em G G 
That I had a   swingin' time
 Em Em7 Em 
 I'm gonna give it everything I've got
                          Em7 Em 
Lady luck please let the dice stay hot
                      Em7 Em 
Let me shoot a seven with every shot

CHORUS
 C <span

Bittersweet Tragedy chords – Melanie Martinez Vsion 4

 Melanie Martinez - Bittersweet Tragedy
Dollhouse EP

I had a rather tough time with this song,
but I enjoyed it very much. This is as
accurate as I could get it.

Chords Used:
 C#m  ;  E  ;  A  ;  G#  ;  B 

::Intro::
 C#m E A G# C#m E A A G#    

[Verse 1]
 C#m E A G# 
Sweet, boy, straight out of the movie screen
 C#m E A  ...  A G# 
Candy hearts and chocolate dreams
 C#m E A G# 
I   met my prince upon a popcorn ball
 C#m E                 A...  A G# 
He held my heart and let it go
 C#m E A G# 
Ice cream, upon a summer's day
 C#m E A  ...  A G# 
Beginning sweetness never stays
 C#m E A G# 
Mel-ting through the cracks in my hands
 C#m E A C#m E    
I guess I held on for too lo-o-o-o-o   -  ong

::Chorus::
     A    B    G#    C#m E    
I'm done with your bittersweet, bittersweet tragedy-y-y
         A    B    G#    
It's no fun, when I'm sitting all alone
                 C#m E 
You're right in front of me-e-e
         A B G# C#m E 
And I'm done with your bittersweet, bittersweet tragedy-y-y
         A B G# 
It's no fun, when I'm sitting all alone
                 C#m 
You're right in front of me
                 C#m       ...  A G# 
You're right in front of me

::Verse 2::
 C#m E A G# 
You speak sour lemonade to me
 C#m E A  ...  A G# 
 The bitter taste won't let me be
 C#m E A G# 
One kiss was supposed to be so sweet
 C#m E A  ...  A G# 
But I found grapefruit in your teeth
 C#m E A G# 
Old gum is all you'll ever be to me
 C#m E A  ...  A G# 
I spit you out and brush my teeth
 C#m E A G 
Mel-ting through the cracks in my hands
 C#m E A C#m E 
I guess I held on for too lo-o-o-o-o - ong

::Chorus::
     A    B    G#    C#m E    
I'm done with your bittersweet, bittersweet tragedy-y-y
         A    B    G#    
It's no fun, when I'm sitting all alone
                 C#m E 
You're right in front of me-e-e
         A B G# C#m E 
And I'm done with your bittersweet, bittersweet tragedy-y-y
         A B G# 
It's no fun, when I'm sitting all alone
                 C#m 
You're right in front of me
                 C#m       ...  A G# 
You're right in front of me

::Bridge::
 C#m    
Enough of your bittersweet
 E    
Your sugar rots my teeth
 A    
Clogs up my arteries
      A G# C#m E    
Your

Comes And Goes In Waves chords – Greg Laswell Vsion 4

 2 Guitars at the beginning played together (Just play the first if you are alone...)
You can play the Riff until the *
and in the end from * as outro

Riff: First Guitar
e|-----0-------0---|-----1-------1---|-----0-------0---|-----------------|
H|---1---1---1---1-|---1---1---1---1-|---1---1---1---1-|-----3-------3---|
G|-2-------2-------|-2-------2-------|-0-------0-------|---4---4---4---4-|
D|-----------------|-----------------|-----------------|-5-------5-------|
A|-----------------|-----------------|-----------------|-----------------|
E|-----------------|-----------------|-----------------|-----------------|

Riff: Second Guitar
e|-----3-------3---|-----3-------3---|-----3-------3---|-----3-------3---|
H|---5-5-5---5-5-5-|---6-6-6---6-6-6-|---5-5-5---5-5-5-|---3-3-3---3-3-3-|
G|-----------------|-----------------|-----------------|-----------------|
D|-----------------|-----------------|-----------------|-----------------|
A|-----------------|-----------------|-----------------|-----------------|
E|-----------------|-----------------|-----------------|-----------------|

No Capo
Intro: 2x Riff

 Am F C               
This one's for the lonely, the one's that seek and find
             G Am     
Only to be let down time after time
 Am F C       
This one's for the torn down, the experts at the fall
                      G Am  
Come on friends, get up now, you're not alone at all


      F C G 
Oh oh oh, oh oh oh
 Am F C G 
Oh, oh oh oh, oh oh oh
*

 F 
And this part was for her
 Dm7 
And this part was for her
 F 
This part was for her
 Dm7 C 
Does she remember?


    Em F 
It comes and goes in waves, I


 Am F C          
This one's for the faithless, the ones that are surprised
                         G Am     
They're only where they are now regardless of their fight
                   F C       
This one's for believing if only for it's sake
                     G Am  
Come on friends get up now love is to be made


      F C G 
Oh oh oh, oh oh oh
 Am F C G 
Oh, oh oh oh, oh oh oh


 F 
And this part was for her
 Dm7 
And this part was for her
 F 
This part was for her
 Dm7 C 
Does she remember?


    Em F C 
It comes and goes in waves, I
    Em F C 
Am only led to wonder why
    Em F C 
It comes in goes in waves, I
    Em F 
Am only led to wonder why
 F          2x  Am F C G 
Why I, why I try


 Am F 
This is for the ones who stand
 C G 
For the ones who try again
 Am F 
For the ones who need a hand
 C G C 
For the ones who think they can


    Em F C 
It comes and goes in waves, I
    Em F C 
Am only led to wonder why
    Em F C 
It comes and goes in waves, I
    Em F F 
Am only led to wonder why
       Am F C G 
Why I try

*
 Am F C G 
Oh, oh oh oh, oh oh oh
 Am F C G 
Oh, oh oh oh, oh oh oh
 Am <s

Head Over Boots chords – Jon Pardi Vsion 4

 Head over boots 


 C G D Em F D# Cm G 
I wanna sweep you off your feet tonight 
 D 
I wanna love you and hold you tight 
 Em 
Spin you around on some old dance floor 
    C Cm 
Act like we never met before for fun, 



 G 
Cause you re the one I want, you re the one I need 
 D 
Baby, if I was a king, ah, you would be my queen 
 Em 
You re the rock in my roll 
 C Cm 
You re good for my soul, it s true 
                            G 
I m head over boots for you


 G 
The way you sparkle like a diamond ring 
 D 
Maybe one day we can make it a thing 
 Em 
Test time and grow old together 
 C Cm 
Rock in our chairs and talk about the weather, yeah 
 G 
So, bring it on in for that angel kiss 
 C Cm 
Put that feel good on my lips, 
 G 
Cause you re the one I want, you re the one I need 
 D 
Baby, if I was a king, ah, you would be my queen 
 Em 
You re the rock in my roll 
  C Cm  
You re good for my soul, it s true
                            G 
I m head over boots for you


 G 
Yeah, I m here to pick you up 
      F C Cm 
And I hope I don t let you down, no, 
 G 
cause you re the one I want, you re the one I need 
 D 
Baby, if I was a king, ah, you would be my queen 
 Em 
You re the rock in my roll 
 C Cm 
You re good for my soul, it s true 
                           G 
I m head over boots for you


 G 
You re the one I want, you re the one I need 
 D 
Baby, if I was a king, ah, you would be my queen 
 Em 
You re the rock in my roll 
 C Cm 
You re good for my soul, it s true 
                            G 
I m head over boots for you


 G 
I wanna sweep you off your feet tonight 
 D 
I wanna love you and hold you tight 
 C Cm     
Spin you around on some old dance floor 
 
Outro:  G D Em C Cm G

End Of Me Tabs – A Day To Remember Vsion 4

 Intro-Verse (Clean Guitar)
E----------------------------------------------------------------------------------------------------
B--3-----3-------------------------------------------------------------------------------------------
G----4-2---4--2---2-2----1---2-1---1---2-1-----------------------------------------------------------
D---------------4-----4----2-----2---2-----2---------------------------------------------------------
A--2-------------------------------------------------------------------------------------------------
E-------------2----------0---------------------------------------------------------------------------(6x)



Chorus (1st Guitar)
E----------------------------------------------------------------------------------------------------
B----------------------------------------------------------------------------------------------------
G----------------------------------------------------------------------------------------------------
D--4444--4444--2222----------------------------------------------------------------------------------
A--2222--4444--2222----------------------------------------------------------------------------------
E--2222--2222--0000----------------------------------------------------------------------------------(3x)


Chorus (2nd Guitar)
E-------------------------------------------------------------------------------------------------------
B-------------------------------------------------------------------------------------------------------
G--16-16-14-14-13-14/14---------------------------------------------------------------------------------
D-------------------------------------------------------------------------------------------------------
A--14-14-12-12-11-11/12---------------------------------------------------------------------------------
E-------------------------------------------------------------------------------------------------------(3x)




Oh, You'll be the end of me...(2nd Verse) (1st guitar) Clean Guitar
E----------------------------------------------------------------------------------------------------
B--3-----3-------------------------------------------------------------------------------------------
G----4-2---4--2---2-2----1---2-1---1---2-1-----------------------------------------------------------
D---------------4-----4----2-----2---2-----2---------------------------------------------------------
A--2-------------------------------------------------------------------------------------------------
E-------------2----------0---------------------------------------------------------------------------



Solo-2nd Verse   (2nd Guitar)   (Delay)                                                              Pre Chorus
E-----------------------------------------------------------------------------------------------------
B-----------------------------------------------------------------------------------------------------
G--6/7-9-7-6-11-9-9-----------------------------------------------------------------------------------     
D-------------------11-9----------------------------------------------------------2-------------------
A---------------------------------------------------------------------------------2--------------------
E---------------------------------------------------------------------------------0--------------------(4x)


Chorus (1st Guitar)
E----------------------------------------------------------------------------------------------------
B----------------------------------------------------------------------------------------------------
G----------------------------------------------------------------------------------------------------
D--4444--4444--2222----------------------------------------------------------------------------------
A--2222--4444--2222----------------------------------------------------------------------------------
E--2222--2222--0000---------------------------------------------------------------------------

I Aint No Nice Guy chords – Motörhead Vsion 4

 I Ain't No Nice Guy by Motörhead

 Máirt

This version is with the musically correct chord shapes and names taking into account that the tuning is
down a Half-Step. Version 2 is my work too and may be less confusing for beginners. For the sake of accuracy
though, here's this one.

Tuning: Down a half step -  D# G# C# F# A# D# 

Intro

 G# D# C#  x2

Verse

 G# D# C# 
When I was young I was the nicest guy I knew

 G# F# C# 
I thought I was the chosen one

 G# D# C# 
But time went by and I found out a thing or two

 G# F# C# 
My shine wore off as time wore on

 G# D# C# 
I thought that I was living out the perfect life

 G# F# C# 
But in the lonely hours when the truth begins to surprise

 G# D# C# 
I thought about the times when I turned my back and sulked

 G# F# C# 
I ain't no nice guy after all


The Second verse is the same chords and there is an extra line...

When I was young I was the only game in town
I thought I had it down for sure,
But time went by and I was lost in what I found
The reasons blurred, the way unsure
I thought that I was living life the only way
But as I saw that life was more than day to day
I turned around, I read the writing on the wall

I ain't no nice guy after all

 G# F# G# 
I ain't no nice guy after all


Bridge

 F A# 
In all the years you spend between your birth and death

 F A# 
You know there's lots of times when you should have saved your breath

 D# G# 
It comes as quite a shock when that trip leads to a fall

            F# C# 
I ain't no nice guy after all

 G# F# G# 
I ain't no nice guy after all


Solo

 F A# F A# D# G# C# G# F# G# 

The third verse is the first verse repeated but with the added line...

 G# F#               (C#)G#
I ain't no nice guy after all

Hosanna Tabs – Hillsongs Vsion 4

 -------------------------------------------------------------------------------
                             Hosanna - Hillsong Global
-------------------------------------------------------------------------------
 Hillsong Global
: andrewbishop

Tuning: Standard

Heard this different version of Hosanna, totally like the guitar parts, kinda brings new texture to the song.
The songs consists of the parts below and of course the chords, but here just the specific eguitar parts,
chords you will find on any website.

Intro:
e|---------------------------------------------------------------------------|
B|--14-----------16--------------------17------12--16------------------------|
G|--13---------------------11-13----13-------13------------------------------|
D|--11------11/14-----11-13-------14-------11--------------------------------|
A|---------------------------------------------------------------------------|
E|---------------------------------------------------------------------------|

e|------------------------------------------14-------------------------------|
B|--14-----------16--------------------17---14-------------------------------|
G|--13---------------------11-13----13---------------------------------------|
D|--11------11/14-----11-13-------14-----------------------------------------|
A|---------------------------------------------------------------------------|
E|---------------------------------------------------------------------------|

Verse -> Verse:
e|---------------------------------------------------------------------------|
B|--14---12---------9--------------------------------------------------------|
G|--13-----11-13----9--------------------------------------------------------|
D|--11--------------9--------------------------------------------------------|
A|---------------------------------------------------------------------------|
E|---------------------------------------------------------------------------|

Chorus: use some slightly notes from 


Bridge -> Solo:
e|---------------------------------------------------------------------------|
B|---14--------16-------17-------19------------------------------------------|
G|---13--------------------------------------Solo!---------------------------|
D|---11---11/13----13/14----14/16--------------------------------------------|
A|---------------------------------------------------------------------------|
E|---------------------------------------------------------------------------|
Can't really figure out the solo, I play somewhere around fret 14 and 16.

Bridge -> Bridge:
e|---------------------------------------------------------------------------|
B|--14---------16---------17---------19---------21---------------------------|
G|--x--(x4)----x--(x4)----x--(x4)----x--(x4)----x--(x16)---------------------|
D|--11---------13---------14---------16---------18---------------------------|
A|---------------------------------------------------------------------------|
E|---------------------------------------------------------------------------|

Outro:
e|---------------------------------------------------------------------------|
B|---------------------------------------------------------------12----------|
G|--13-13-11-13-----13-13-11--13/15\13----13-13-11-13----13-11/13------------|
D|---------------------------------------------------------------------------|
A|---------------------------------------------------------------------------|
E|---------------------------------------------------------------------------|


For this song I´m using:
Walrus Audio - Deep Six
Visual Sound VSXO
Strymon Timeline // Dotted 8th



god bless

Prey Tabs – The Neighbourhood Vsion 4

 -------------------------------------------------------------------------------
                             PREY - THE NEIGHBOURHOOD
-------------------------------------------------------------------------------
: Dale 

Tuning: Standard

First tab uploaded to here, hope you enjoy!!

Intro

e|-----5-----5------5-----5-----7-----7-----7-----7-----5-----5----5-----5---------------|
B|-------6-----6------5-----5-----8-----8-----8-----8-----6-----6----5-----5-------------|
G|---------7-----7------5-----5-----7-----7-----7-----7-----7----7-----5-----5-----------|
D|---------------------------------------------------------------------------------------|
A|---------------------------------------------------------------------------------------|
E|---------------------------------------------------------------------------------------|

e|-----3-----3-----5-----3---------|
B|-------5-----5-----5-----5-------|
G|---------5-----5-----5-----5-----|   x 2
D|---------------------------------|
A|---------------------------------|
E|---------------------------------|

Main Riff (Verse) 

This sounds best when picked, though can be strummed.

Play this during the verse.

e|---5---5-----5---5---------5-------8---7---5-----5---5--------5---3---3----------3-------|
B|---6---6-----6---6---------6-------6---6---6-----5---5--------5---5---5----------5-------|
G|---7---7-----7---7------7----------7---7---7-----5---5--------5---5---5----------5-------|
D|-----------------------------------------------------------------------------------------|
A|-----------------------------------------------------------------------------------------|
E|-----------------------------------------------------------------------------------------|


(Intro)


Dm  Am  C


[Verse 1] - MAIN RIFF HERE
   Dm
As long as you notice
    Am             C                   Dm
I'm hoping that you'll keep your heart open
                    Am     C
I'll keep mine open too
       Dm
If you don't ask, I won't tell
     Am              C
Just know that, just know that
   Dm             Am                G (single strum)
It all hurts, it all hurts just the same


[Hook]
F             Dm                 Am
Something is wrong, I can't explain
                            C
Everything changed when the birds came
Dm           F                    Am                       C
You'll never know what they might do if they catch you too early
F           Dm                  Am                    C
We need to fly ourselves before someone else tells us how
Dm           F                 Am               Am (single strum)
Something is off, I feel like prey, I feel like praying


[Verse 2] - MAIN RIFF HERE
   Dm
As long as you notice
    Am             C                   Dm
I'm hoping that you'll keep your heart open
                    Am     C
I'll keep mine open too
Dm                    Am
So, so, I'll probably take you aside
             C
And tell you what's on my mind
    Dm
But you, you'll just keep it inside
         Am                    G
Probably tell me that you're alright


[Hook]
F            Dm                  Am
Something is wrong, I can't explain
                            C
Everything changed when the birds came
Dm           F                    Am                       C
You'll never know what they might do if they catch you too early
F           Dm                  Am                    C
We need to fly ourselves before someone else tells us how
Dm           F                 Am               Am
Something is off, I feel like prey, I feel like praying


[Bridge]
G  Am F
(If I run) If I run away I'll never know
G     Am  Dm
(What you want) And if you go then I’ll never grow
G   Am F
(I'm undone) Let me slip, let me slide
G   Am  Dm
(If you run) I'll be sure to let you fly


[Hook]
F            Dm                Am
Something is off, I can't explain
                        C
You know what I mean, don't you?
Dm            F                 Am             
Something 

Heroes And Friends chords – Randy Travis Vsion 4

 G D7 G 
I ain't lived forever but I've lived enough
  
          Em C G D7 
And I've learned to be gentle and I've learned to be tough 
 
      Em C G C 
I've found only two things that last till the end 
 
 G D7 G 
One is your heroes the other your friends
  
  
      C G 
Your heroes will help you find good in yourself 
 
      D7 C G 
Your friends won't forsake you for somebody else 
 
         C G Em 
They'll both stand beside you through thick and through thin 
 
     G D7 G 
And that's how it goes with heroes and friends
 

                          D7 G 
I grew up with cowboys I watched on TV
  
    Em C G D7 
My friends and I sometimes pretended to be 
 
 Em C G C 
Years have gone by but now and again 
 
 G D7 G 
My heart rides the range with my heroes and friends
  
  
       C G 
Your heroes will help you find good in yourself 
 
      D7 C G 
Your friends won't forsake you for somebody else 
 
         C G Em 
They'll both stand beside you through thick and through thin 
 
     G D7 G 
And that's how it goes with heroes and friends 


      C G 
Your heroes will help you find good in yourself 
 
      D7 C G 
Your friends won't forsake you for somebody else
  
         C G Em 
They'll both stand beside you through thick and through thin 
 
     G D7 Em 
And that's how it goes with heroes and friends 

 
 G D7 C G 
And that's how it goes with heroes and friends

               

O Come To The Altar chords – Elevation Worship Vsion 4

 VERSE 1 
  B E B 
 Are you hurting and broken within 
     E G#m 
Overwhelmed by the weight of your sin 
          E 
Jesus is calling
  B E B 
 Have you come to the end of yourself 
          E G#m 
Do you thirst for a drink from the well 
           E 
Jesus is calling 

CHORUS

 B C#m G#m 
 O come to the altar
                        E B 
The Father’s arms are open wide 
            C#m G#m 
 Forgiveness was bought with
                         E B 
The precious blood of Jesus Christ

TURN
[  B  -  E  -  B  -  E  ]

VERSE 2
 B E B 
Leave behind your regrets and mistakes 
        E G#m 
Come today there’s no reason to wait 
            E 
Jesus is calling
 B E B 
Bring your sorrows and trade them for joy
            E G#m  
From the ashes a new life is born 
           E 
Jesus is calling 

[CHORUS] (x2)

 B C#m G#m 
 O come to the altar
                        E B 
The Father’s arms are open wide 
            C#m G#m 
 Forgiveness was bought with
                         E B 
The precious blood of Jesus Christ

TURN
 B  -  G#m  -  E  

BRIDGE (x2)
  B 
 Oh what a Savior
            G#m 
Isn’t he wonderful
           E B 
Sing alleluia, Christ is risen
  B  
 Bow down before him
           G#m 
For he is Lord of all 
           E B  
Sing alleluia, Christ is risen

[CHORUS] (x2)

 B C#m G#m 
 O come to the altar
                        E B 
The Father’s arms are open wide 
            C#m G#m 
 Forgiveness was bought with
                         E B 
The precious blood of Jesus Christ

TURN
 [  B  -  C#m  -  G#m  -  E  -  B  ]

VERSE 3 
 B E B 
 Bear your cross as you wait for the crown 
            A E B 
Tell the world of the treasure you’ve found

Dad chords – Neele Ternes Vsion 4

 Intro:
 Bb                   
  I never told you how
 Dm 
  How much you mean to me
 Gm 
  What in the world I would do
 Eb Gm F Eb Eb    
  I just never made it through to you, oh, to you


Verse1:
                Bb                 
  There goes a day, there goes a week
           Dm 
  So many goals I had to reach
              Gm 
  The more I did, the less I cared
              Eb 
  The more I miss the love you’ve shared
                Bb 
  If life is a song, somehow it’s sad
                    Dm 
  I don’t know the words without you, Dad
                     Gm 
  You’ve been on my mind all the time
                 Eb 
  And I’m missing you


Pre-Chorus:
                Gm F Eb Eb 
  Home used to be just some walls that I know
                    Gm F Eb Eb 
  But the truth is home means nothing without you, So i gotta say: 


Chorus:
 Bb Dm 
  won't you gro-o-o-o-ow-old
                          Gm 
  Cause it's you-o-o-o-o-o
                     Eb 
  That i wa-ant to list
       F Bb 
  As long as i need you here
                        Dm 
  And i'm be-e-e-eging you
                          Gm 
  Daddy pleace do-o-on't leave
                              Eb 
  You once told your little girl
             F   
  You're unbreakable


Verse2:
                Bb 
  There goes a month, there goes a year
            Dm 
  So many things out there i fear
               Gm 
  You help me up when i was dowm
                 Eb 
  You taught me how to stand my ground
                  Bb 
  This life is a song, happy and sad
                       Dm 
  And i don't want to sing without you Dad
               Gm 
  Maybe it's selfish when i say these words
                  Eb 
  But i'm missing you


Pre-Chorus:
                Gm F Eb Eb 
  Home used to be just some walls that I know
                    Gm F Eb Eb 
  But the truth is home means nothing without you, So i gotta say: 


Chorus:
 Bb Dm 
  won't you gro-o-o-o-ow-old
                          Gm 
  Cause it's you-o-o-o-o-o
                     Eb 
  That i wa-ant to list
       F Bb 
  As long as i need you here
                        Dm 
  And i'm be-e-e-eging you
                          Gm 
  Daddy pleace do-o-on't leave
                              Eb 
  You once told your little girl
             
  You're unbreakable

Outro:
    Bb Dm Gm Eb 
  Oh, oh oh
    Bb Dm Gm Eb 
  Oh, oh ohoh
                    Gm F Eb Eb  
  The truth is my home means nothing without you     
   
   Bb

Sunday Candy chords – Donnie Trumpet And The Social Experiment Vsion 4

 This riff is the same for the entire song. There are probably some minor differences between the verses and
chorus, but I've found this to be pretty accurate. The barre chord version sounds better than open chords 
in my opinion, but they open chords also work great if you're not as comfortable with barring. Enjoy!


Barre Chord Version
     Cmaj7 Cmaj7/B Am7 Gm7 C7 Fmaj7 C Dm7 G 
e |---x--------x-------5------3------3------0------0------5------3----|
B |---x--------x-------5------3------5------1------1------6------3----|
G |---9--------9-------5------3------3------2------0------5------4----|
D |---10-------10------5------3------5------3------2------7------5----|
A |---10-------10------7------5------3------0------3------5------5----|
E |---8--------7-------5------3------3------0------x------5------3----|

Open Chord Version
       C C/B Am7 Gm7 C7 Fmaj7 C Dm7 G 
e |---0--------0-------0------0------0------0------0------1------3----|
B |---1--------1-------1------3------1------1------1------1------0----|
G |---2--------0-------0------0------3------2------0------2------0----|
D |---0--------2-------2------3------2------3------2------0------0----|
A |---3--------2-------0------1------3------0------3------0------2----|
E |---x--------0-------0------3------0------0------x------x------3----|

NOTE: For open chord version, just replace all Cmaj7 with C and replace all Cmaj7/B with C/B.

----------------------------------------------------------------------------------------------

INTRO:
 Cmaj7 Cmaj7/B Am7 Gm7 C7 Fmaj7 C Dm7 G 

VERSE:
 Cmaj7 Cmaj7/B Am7 Gm7 
She could say in her voice, in her way that she love me
          C7 Fmaj7 C Dm7 
With her eyes, with her smile, with her belt, with her hands, with her money
          G 
I am the thesis of her prayers.
     Cmaj7 Cmaj7/B 
Her nieces and her nephews are just pieces of the layers,
      Am7 Gm7 C7 Fmaj7 
Only ones she love as much as me is Jesus Christ and Taylor.
                       C Dm7 
I got a future so I'm singing for my grandma
                           G Cmaj7 
You singing too, but your grandma ain't my grandma!   
                      Cmaj7/B            
Mine's is hand made, pan fried, sun dried
 Am7 Gm7 C7 
Southside, and beat the devil by a landslide.
 Fmaj7 C 
Praying with her hands tied, president of my fan club,
 Dm7 G 
Stand tall, something told me I should bring my butt to church!

HOOK/CHORUS(x2):
                   Cmaj7 
You gotta move it slow-ly,
 Cmaj7 Am7            
Take and eat my body like it's ho-ly.
 Gm7 C7 Fmaj7 
I've been waiting for you for the whole week,
 C Dm7 G 
I've been praying for you, you're my sun-day, can-dy.

BRIDGE:
 Cmaj7 Cmaj7/B Am7 Gm7 C7 
Come on in this house, cause it's gonna rain.
 Fmaj7 C Dm7 G     
Rain down Zion, it's gonna rain.
            Cmaj7 Cmaj7/B Am7 Gm7 C7 
You better come on in this house, cause it's gonna rain.
 Fmaj7 C Dm7 G 
Rain down Zion, it's gonna rain.

VERSE:
   

My Oldest Friend Tabs – Have Mercy Vsion 4

 Track: My Oldest Friend
Artist: Have Mercy
 My Oldest Friend - EP (2012)
Tuning: E Standard (E A D G B e)

---

: Noah Maranesi
Website: Instagram.com/n04hz_ark

---

Verse 1 (Finger pick)

e|--------------|--------------|--3----------|
B|--2--------2--|--3--------3--|--3----------|
G|--------2-----|--------4-----|--0----------|
D|-----2--------|-----4--------|--0----------|
A|--0-----------|--2-----------|--2----------|
E|--------------|--------------|--3----------|


Verse 2 (Finger pick)

e|--------------|--------------|-------------|
B|--10----------|--7-----------|--3-p0-------|
G|------11------|-----7--------|-------------|
D|--0-----------|--------------|-------------|
A|--------------|--------------|-------------|
E|--------------|--7-----------|--3----------|


Alternative Verse 2 (Finger pick)

e|--5-p2--------|--2-----------|-------------|
B|--------------|-----3--------|--3-p0-------|
G|--------------|--------------|-------------|
D|--0-----------|--------------|-------------|
A|--------------|--2-----------|-------------|
E|--------------|--------------|--3----------|


Alternative Verse 2 for 2 guitars

e|--------------|--------------|-------------|
B|--------------|--------------|-------------|
G|--------------|--------------|-------------|
D|--0-----------|--------------|-------------|
A|--------------|--2-----------|-------------|
E|--------------|--------------|--3----------|

e|--------------|--------------|-------------|
B|--10-\-7------|--7--\--3-----|--3--\--0----|
G|--------------|--------------|-------------|
D|--------------|--------------|-------------|
A|--------------|--------------|-------------|
E|--------------|--------------|-------------|

Living Room Song chords – The Wonder Years Vsion 4

 The Wonder Years

Living Room Song

Key: Eb/D# Major

Tuning: Half-a-Step Down (d#,A#,F#,C#,G#,D#)

 Matty Sievers

The song is played half-a-step down like most TWY songs and you'll see a tab for each 
chord below.
For the confused, tune your guitar down half a semi tone on each string then transpose 
this up a semi tone
on the app/website to make things clearer if you don't normally play out of standard.

I prefer the use of the Cmin open chord but if you're unable to move your fingers that 
quickly and like the
ease of just moving up and down the fretboard with no change then use the C chord. The 
band use the C chord
I however prefer the Cmin as it creates a much better vibe to the song.

Another option if you prefer that singer songwriter vibe, in standard tuning chuck your 
capo on 3rd fret and
transpose the tab down 3 semitones. Should be C, G, F, Amin.

I've added in the counts as best I could to help you out as I know how confusing the 
chord placement above
the lyrics can be sometimes. You should be able to hear the chord changes for the most 
part of the song
though.

      D# A# G# Cmin  or  C D#5 
e|---0----0----0----0------0---0----|
B|---0----0----0----0------0---0----|
G|---1----4----2----4------6---9----|
D|---2----4----2----6------6---9----|
A|---2----2----0----4------4---7----|
E|---0----0----0----0------0---0----|


       1 2 3 4 |1 2 3 4 1 2 3 4 |1 2 3 4
Intro:  D# A# G# D# A# G# 

VERSE (same timing)

 D# A# G# 
Guy on the radio sounds like a budget Steven Hawking.
 D# A# G# 
Keeps trying to tell me that The Bible says the world is ending.
 D# A# G# D# A# 
It goes down around May 20th, so I guess this song is pointless; you’re never gonna
 G# 
hear it.

PRE-CHORUS
            1   2    3    4    1  2  3  4 1   2    3   4
             C D#2 A# 
But if the world ends, I hope I’m in my living room with best friends.
G#(once)
So raise your glasses.

CHORUS (intro timing)

 D# A# G# D# A# G# 
We don’t have trouble sleeping. No one, no one’s gonna take that away from me.
 D# A# G# A# C G# 
We don’t have trouble sleeping. We know, we know who we wanna be.

VERSE

 D# A# G# 
Fuck some movie that I swore Keanu Reeves was in.
 D# A# G# 
These doomsday prophecies are all gonna amount to nothing.
 D# A# G# 
And so, for now, I’m calling “bullshit.”
                     D# A# G# 
If the Mayans don’t believe it, why should I be any different?

PRE-CHORUS

            C D#5 A# 
But if the world ends, I hope I’m in my living room with good friends.
G# (once)
So raise your glasses.

CHORUS

 D# A# G# D# A# G# 
We don’t have trouble sleeping. No one, no one’s gonna take that away from me.
 D# A# G# A# C G# 
We don’t have trouble sleeping. We know, we know who we wanna be.

BRIDGE:
1     2     3     4  1  2  3  4  1       2       3       4       1       2        3 & 4 &
 D# G# A# G# 
This week is gonna swallow me, but when it spits me out, I’m landing on my feet.
1     2     3     4     1 2 3 4  1   2   3   4
 D# G# A# 
I’m going to bed tonight in my New Found Glory hoodie.
   

Fallout 4 – Main Theme Tabs – Misc Computer Games Vsion 2

 -------------------------------------------------------------------------------
                             Fallout 4 - Main Theme
-------------------------------------------------------------------------------
: Dan Foy

Tuning: Standard


Intro
     main                                   background
e|---------------------------------------------------------------------------|
B|---------------------------------------------------------------------------|
G|------------------------------------------8-10-8---------------------------|
D|----------------------------5----------------------------------------------|
A|---3-6--7----3-6--7----3-6----5--3-5---------------------------------------|
E|---------------------------------------------------------------------------|


Chorus 1
     main              background     main            background              
e|----------------------------------------------------8--10------------------|
B|----------------8--------8----------------------8--------------------------|
G|---7--5---3--5--5----5-8---7-3-5----8--10---7-3-5--------------------------|
D|---------------------------------------------------------------------------|
A|---------------------------------------------------------------------------|
E|---------------------------------------------------------------------------|
     main              background   main            background
e|---------------------8--6--8----------------------8------------------------|
B|----------------8-----------------------------8----------------------------|
G|---8--7--5-3-5--5-----------------8--7--5-3-5-5----------------------------|
D|---------------------------------------------------------------------------|
A|---------------------------------------------------------------------------|
E|---------------------------------------------------------------------------|


Modified intro
     main                                 main/background
e|---------------------------------------------------------------------------|
B|----------------------------------------6----------------------------------|
G|---------------------------------------------------------------------------|
D|------------------4---------------------3----------------------------------|
A|---3--6--7--6--3---------3--6--7--6--3-------------------------------------|
E|---------------------------------------------------------------------------|


Bridge
     main
e|----------------------------------6--7--9--9-------------------------------|
B|-----------------------6--8--9-9-------------------------------------------|
G|---5--8--9----5--8--9------------------------------------------------------|
D|---------------------------------------------------------------------------|
A|---------------------------------------------------------------------------|
E|---------------------------------------------------------------------------|


High chorus/swell
     main                 background      main/background
e|---11--12--11--9----9-----------------------------------6--9--9------------|
B|-----------------12-----------------------7-----------9-7--7--9------------|
G|------------------------9-8-9--6---6----9---8---6-6-6-6--------------------|
D|---------------------------------9-7----------9-8-6-8----------------------|
A|---------------------------------------------------------------------------|
E|---------------------------------------------------------------------------|


Outro
    main
e|---------------------------------------------------------------------------|
B|---------------------------------------------------------------------------|
G|-----------------------------6---------------------------------------------|
D|--------------------------7--6---------------------------------------------|
A|---4--7--8---4--7---7--9-----4---------------------------------------------|
E|--------------------5--5---------------------------------------------------|




I waited years f

Atom Bomb Baby Fallout 4 Gameplay Trailer chords – The Five Stars

 ============================================================================
  The Five Stars were an Indiana rock/doo wop group signed with KY Labels,
             this particular song was recorded in 1957.
            
============================================================================

Song: Atom Bomb Baby
Artist: The Five Stars
Tuning: Standard (EADGBe)
Source: Fallout 4 Gameplay Trailer

--

Intro

 G D G D G D 
Got a doll baby, I love her so,
 G D 
Nothing else like her anywhere you go
 G C 
Man, she's anything but calm,
   D G 
A regular pint-sized atom bomb!


 C G 
Atom bomb baby, little atom bomb,
 D G 
I want her in my wigwam!
 C G 
She's just the way I want her to be,
   D G 
A million times hotter than TNT!

 G D G D G D 
Atom bomb baby, loaded with power,
 G D 
Radioactive as a TV tower
   G C 
A nuclear fission in her soul,
 D G 
Loves with electronic control!

 C G 
Atom bomb baby, little atom bomb,
 D G 
I want her in my wigwam!
 C G 
She's just the way I want her to be,
 D G 
A million times hotter than TNT!

 G D G D G D 
Atom bomb baby, boy, she can start,
 G D 
One of those chain reactions in my heart
   G C 
A big explosion, big and loud,
 D G 
Mushrooms me right up on a cloud!

-Chorus-

 G D G D G D 
Atom bomb baby, sweet as a plum,
 G D 
Carries more wallop than uranium
 G C 
When she kisses, there's no hitch,
 D G 
Zero power, she turns on the switch!

-Chorus x2-

============================================================================
I would've provided more info about the band but unfortunately, there isn't
much to go on. The existing wiki page speaks of another, slightly younger
group under the same name.

Should you find any mistakes, feel free to contact me at 
iudicium.invocat

Cheers.

1 2 3 4 chords by Plain White Ts V9

 Plain White Ts - 1 2 3 4
  Gm = 355333  or  xx5333

Intro    D     | A/C#   | Bm     | A      | G      | Gm     | D      |       ||
                                                1  2   1 2 3 4

  D         | A/C#       | Bm         | A          | G      | Gm         | D      |     ||
-5---2----|-5--------|-5--------|-5-7-9-10-|------|-10—12p10-|-10---|-----|
----------|-----5----|-----3----|----------|------|-11-------|-10---|-----|
----------|----------|----------|----------|------|----------|------|-----|
----------|----------|----------|----------|------|----------|------|-----|
----------|----------|----------|----------|------|----------|------|-----|
----------|----------|----------|----------|------|----------|------|-----|

Verse 1
  D A 
Give me more lovin than I've ever had, make it all better when I'm feelin sad
 Bm A A7 
Tell me that I'm special even when I know I'm not.
  D A 
Make me feel good when I hurt so bad, barely gettin mad,
                Bm A 
I’m so glad I found you, I love bein’ around you.
             G A 
You make it easy, as easy as 1  2   1 2 3 4


Chorus
              D A/C# Bm A G Gm D 
There’s only one thing two do three words four you, “I love you”
              D A/C# Bm A G Gm D 
There’s only one way two say those three words and that's what I'll do, “I love you”

Verse 2
  D A 
Give me more lovin from the very start, piece me back together when I fall apart
 Bm A A7 
Tell me things you never even tell your closest friends
  D A 
Make me feel good when I hurt so bad; best that I've had
                      Bm A 
I’m so glad that I found you, I love bein’ around you.
             G A 
You make it easy, as easy as 1  2   1 2 3 4

Chorus
              D A/C# Bm A G Gm D 
There’s only one thing two do three words four you, “I love you”
              D A/C# Bm A G Gm D 
There’s only one way two say those three words and that's what I'll do, “I love you”

             G A 
You make it easy, as easy as 1  2   1 2 3 4

              D A/C# Bm A G Gm D 
There’s only one thing two do three words four you, “I love you”
              D A/C# Bm A G Gm D 
There’s only one way two say those three words and that's what I'll do, “I love you”
 A/C# Bm A G Gm D   
                    I love you
 D A/C# Bm A G Gm D G Gm D 
1   2   3   4      I love you, I love you

So Schmerzt Der Winter chords – 4 Promille

 Intro:  Em  /  C  /  Em  /  C  /  Em  /  C  /  G  /  D  [2x]
        Em  /  C  /  G  /  D  [4x]

Strophe 1:  Em  /  C  /  G  /  D 

Ein feuchter Morgen, 6 Uhr 15,
grauer Nebel liegt in der Luft.
Ein eisiger Wind bringt von Osten
aus einer warmen Küche Kaffeeduft.

Strophe 2:  Em  /  C  /  G  /  D 

Steife Glieder recken sich,
den kalten Tau, den kalten Tau noch im Gesicht.
ein eisiger Kuss, wie ein Schlag,
so beginnt, so beginnt ein neuer Tag

Kehrreim:  Em  /  C  /  G  /  D 

So schmerzt der Winter, so schmerzt der Winter, so schmerzt der Winter.

Strophe 3:  Em  /  C  /  G  /  D 

Trocknes Brot, schimmlige Reste,
lassen den Hunger, den Hunger kaum vergehen.
Der starke Schnaps hilft noch am besten,
lässt einen andre, andre Dinge sehn.

Strophe 4:  Em  /  C  /  G  /  D 

Die Kälte kriecht tief in die Knochen,
laut im Schädel ein dumpfes Pochen.
Ein stummer Schmerz, ein tiefer Zug,
für ein wenig, ein wenig Mut.

Kehrreim:  Em  /  C  /  G  /  D 

So schmerzt der Winter, so schmerzt der Winter, so schmerzt der Winter.

So schmerzt der Winter, so schmerzt der Winter, so schmerzt der Winter,
so schmerzt der Winter, so schmerzt der Winter.

Alte Schule chords – 4 Promille

 Intro:


g|-9-8-6---|-8-9-----|-9-------|-8-------|
D|-------6-|---------|---------|---------|  (1. Gitarre)

    C# A E H 
  
g|---------|---------|-9-------|---------|
D|-11------|-7-------|-9-------|-9-------|
A|-11------|-7-------|-7-------|-9-------| (2. Gitarre)
E|-9-------|-5-------|---------|-7-------|



Strophe 1: 

 C# A E H 
Hier kommt die alte Schule - Nicht mehr ganz so frisch
 C# A H  
Vergesst die lucky seven - Zwei Sechser auf den Tisch
 C# A E H 
Und erzähl mir nichts von Bowling - Kegeln heißt unser Spiel
 C# A H 
Wozu brauche ich drei Löcher - 10 Pinne sind einer zu viel

Kehrreim:

 C# A E H  
Kalte Flammen - neuer Trend
 C# A H 
Zu viel Feuer - Feuer das nicht brennt
 C# A E H  
Kalte Flammen - neuer Trend
 C# A H 
Zu viel Feuer - Feuer das nicht brennt

Strophe 2:
Wir sind die alte Schule - Knallhart und ungeniert
Eure coole Modewelt - Hat uns noch nie berührt
Ohne Glanz und ohne Schimmer - Wir lieben den Genuss
Das Echte und das Wahre - Die alte Schule sendet einen Gruß

Kehrreim:

Kalte Flammen - neuer Trend
Zu viel Feuer - Feuer das nicht brennt
Kalte Flammen - neuer Trend
Zu viel Feuer - Feuer das nicht brennt