Tag: adventure

Adventure Time – Come Along With Me piano chords

[Verse 1]
A        D    G      D
   Come along with me
                         G
And the butterflies and bees
          Bm           G
We can wander through the forest
       D             A
And do so as we please
      D    G      D
Come along with me
                    G
To a cliff under a tree
             Bm           G
Where we can gaze upon the water
          A        D
As an everlasting dream

[Chorus]
F#7            G
All of my collections
          A              D
I'll share them all with you
F#7           G
Maybe by next summer
  D                      A
We won't have changed our tunes

[Verse 2]
         D    G   Bm
I still want to be
                          G
With the butterflies and bees
       Em            G
Making up new numbers
              A      D
And living so merrily

[Chorus]
F#7          G
All of my collections
                          D
I'll share them all with you
  F#7                  G
I'll be here for you always
      E          A
And always be with you

[Outro]
    D      G    D
Come along with me
                        G
And the butterflies and bees
        Bm               G
We can wander through the forest
            A       G
And do so as we please
            A    D
Living so merrily

Wonder chords – Adventure Club

 The chords sound best when played like this:

    Eb F Gm Cm Dm 
e|-6---8---3---3---5-|
b|-8---10--3---4---6-|
g|-8---10--3---5---7-|
d|-8---10--5---5---7-|
A|-6---8---5---3---5-|
E|-x---x---3---x---x-|

Intro:  Eb F Gm Cm Dm Eb F 
  Have you ever wondered
                   Gm 
what it could be like
             Cm Dm            
and I was all set to come back home
 Eb F Gm Cm Dm 
  You were after nothing I could give long
 Eb F 
  Have you ever wondered
                   Gm 
what it could be like
              Cm Dm       
and I was standing back on my feet
 Eb F 
  There's nothing there
                 Gm Cm Dm 
so now we were better


 Eb F 
  And I know I should have held you closer
 Gm Cm Dm 
  and I know I should have treated you better
 Eb 
  in a perfect world
 F Gm 
  but we're not always
           Cm Dm 
what we promised to be
 Eb F 
  You caught my words in mid-air
 Gm Cm Dm  
  The silence hung as you caught my eye
 Eb F Gm Cm Dm 
  conversations locked away in my mind

Have you ever wondered
what it could be like
and I was all set to come back home
You were after nothing I could give long
Have you ever wondered
what it could be like
and I was standing back on my feet
There's nothing there
so now we were better

And I know I should have held you closer
and I know I should have treated you better
in a perfect world
but we're not always what we promised to be
You caught my words in mid-air
The silence hung as you caught my eye
conversations locked away in my mind

A Lifetime Of Adventure chords – Tuomas Holopainen

 Easiest ways to play it:
1. Standard tuning, capo 6
2. Half step down tuning, no capo (transpose 5 steps down to the key of Em, play open chords)
3. Standard tuning, no capo (transpose 6 steps down to the key of Ebm, play bar chords)
4. Half step down tuning, capo 7

-You could play with more people tuned in these different ways (combination of 1 
and 2 might sound very powerful, add 3 or even 4 and you'll have the entire 
orchestra covered… kind of).
-1 and 4 will probably sound the same, for your information.

Both lyrics and chords I  ear in about two hours.
My Youtube channel is www.youtube.com/CompleteDistortion

======================

You can kind of guess the chords of course, but I'll still point out how I play it.
YOU MIGHT WANT TO TAKE A LOOK AT THE "Am/D" BELOW.

Am/D (actually it's a "C 6add9(no 5th)", but I wrote it as Am/D because that's easier to follow)
x00210

 Am 
x02210

 Asus2 
x02200

 Cmaj7 
x32000

 Fmaj7 
x33210

 G 
32003x

 F 
133211

 Dm 
xx0231

======================

INTRO:
( Am Asus2 Am Asus2 )

VERSE 1:
 Am Cmaj7 Am/D Fmaj7 
To      be            rich        is

 Am Cmaj7 Am/D F 
to       still          re-        member

 Am Cmaj7 G F 
To      treasure your first dime

 Am Cmaj7 G F 
To      have     a chance to say farewell

CHORUS:
 Am 
Story of your life
              C 
Time of solitude and strife
               G 
Freedom of the northern road
             F 
Hoping many miles to go
 Am 
Promises to keep
                 C 
Countless gold fields to reap
           G 
To be rich is to seek
         F 
To relive the memory

VERSE 2:
 Am Cmaj7 Am/D Fmaj7 
Far off lands,    quests of old

 Am Cmaj7 Am/D F 
Self respect,     true        grit

 Am Cmaj7 G F 
Never care, my fortune, my wife
 Am Cmaj7 G F 
To      seek   is to be rich

CHORUS:
( Am C G F )
Story of your life
Time of solitude and strife
Freedom of the northern road
Hoping many miles to go

Promises to keep
Countless goldfields to reap
To be rich is to seek
To relive the memory


BRIDGE:
 Am C 
All the strangers on your path

                                               G 
Crossroads that lead us from home
                                   Dm 
The cooling hymn for soulful Yuletid hearth
 Am C 
All the songs of wilderness
                                     G 
The truth in which you fall
                                             Dm F 
They're your lost troves, but that's what you recall

CHORUS:
( Am C G F )
Story of your life
Time of solitude and strife
Freedom of the northern road
Hoping many miles to go

Promises to keep
Countless goldfields to reap
To be rich is to seek
To relive the memory

[repeat chorus]

Guitar solo [which is very, very long…]
( Am C G F )

Outro
 F 

++++++

Thanks for stopping by, I'm very much looking forward to Tuomas' upcoming solo 
album "The Life And Times of Scrooge McDuck."

OFFICIAL TUOMAS HOLOPAINE

Adventure Time Theme Tabs by Misc Cartoons

 Song: Adventure Time Theme
Tab: Greygloom

Here's the Theme Song to my favorite TV-Show


Tempo: 164bpm

The Melody
    4+      1+   2  +3+  4      1+ 2  +  3  +4 +     1+ 2+ 3+ 4+
e|-------|--3----3--3----3---|--2--0-----0--------|--------------------------|
B|-------|-------------------|--------3-----3--0--|--1--0--------------------|
G|--0----|-------------------|--------------------|--------2--0--------------|
D|-------|-------------------|--------------------|--------------------------|
A|-------|-------------------|--------------------|--------------------------|
E|-------|-------------------|--------------------|--------------------------|

     1  +2 +  3+ 4+    1+ 2  +3+ 4+    1+ 2  +3  +4 +     1+2 +  3+ 4  +
e|------------------|--3--3--3---3--|--2--0------------|---------------------|
B|------------------|---------------|--------3-p-0--0--|--1---1--1--3--3-----|
G|------1--0--------|---------------|------------------|---------------------|
D|------------2--0--|---------------|------------------|---------------------|
A|------------------|---------------|------------------|---------------------|
E|------------------|---------------|------------------|---------------------|

    1+ 2  +  3+ 4+     1+   2+3+4+
e|-----------------|---3-----------------------------------------------------|
B|--3--0--0--------|---3-----------------------------------------------------|
G|-----------2--0--|---0-----------------------------------------------------|
D|-----------------|---------------------------------------------------------|
A|-----------------|---------------------------------------------------------|
E|-----------------|---------------------------------------------------------|



Background Music
    -            G           D           C           D
    4+           1+2+3+4+    1+2+3+4+    1+2+3+4+    1+2+3+4+
e|------------|--3--------|--2--------|--3--------|--2-----------------------|
B|------------|--3--------|--3--------|--5--------|--3-----------------------|
G|------------|--4--------|--2--------|--5--------|--2-----------------------|
D|------------|--5--------|--0--------|--5--------|--0-----------------------|
A|------------|--5--------|-----------|--3--------|--------------------------|
E|------------|--3--------|-----------|-----------|--------------------------|

After this it's the same chord pattern as for the previous 4 bars (G D C D)
Just use this strumming pattern   
                             aand the last bar
     1+  2  +3  +  4  +        1+2+3+4+
e|---x---x--x---x--x--x--|  |--3--------|                  
B|---x---x--x---x--x--x--|  |--3--------|
G|---x---x--x---x--x--x--|  |--4--------|
D|---x---x--x---x--x--x--|  |--5--------|
A|---x---x--x---x--x--x--|  |--5--------|
E|-----------------------|  |--3--------|

Lyrics:
  G               D
Adventure Time, c'mon grab your friends
      C          D
We'll go to very  distant lands.
G                     D
With Jake the dog and Finn the human.
    C
The fun will never end.
D              G
It's Adventure Time!


Have Fun

The Great Adventure chords – Praise And Worship

 D G D G D G 
Started out this morning In the usual way
                          D G A G 
Chasing thoughts inside my head Of all I had to do today
 D G D G Em7 D Em7 G A D 
Another time around the circle Try to make it better than the last
                          G D G 
I opened up the Bible And I read about me
 D G A G 
Said I'd been a pris'ner And God's grace had set me free
 D G D G Em7 D Em7 
And somewhere between the pages It hit me like a lightning bolt
  D G D G A 
I saw a big frontier in front of me And I heard somebody say let's go

 G D G D G 
Saddle up your horses We've got a trail to blaze
                                     D G A G 
Through the wild blue yonder Of God's amazing grace
                           D G Bm7 A Bm7 A Bm7 
Let's follow our leader Into the glorious unknown
 A Em7 D A 
This is life like no other    (Oh oh)
 G D G D G 
This is The Great Adventure         (Yeah)
 
 D G D G 
Come on and get ready For the ride of your life
                      D G A G 
Gonna leave long-faced religion In a cloud of dust behind
 D G D Em7 D Em7 D 
And discover all the new horizons Just waiting to be explored
          G D A 
This is what we were created for    yeah

 Bm A D Em7 A 
     We'll travel over    Over mountains so high
                              D G D A Bm7 Em 
We'll go through valleys below        Still through  it   all
                         G A D G 
We'll find that This is the greatest journey
             Em7 A Em7 D G D 
That the human heart will ever see      The love of God will take us far
 A G D G D G 
Beyond our wildest dreams
                      D G D G 
Oh saddle up your horses     Come on get ready to ride

Fry Song chords – Adventure Time Marceline

 A Bm 
Daddy, why did you eat my fries?
       E A 
I bought them, and they were mine.
 A Bm 
But you ate them, yeah, you ate my fries.
 E A 
And I cried, but you didn’t see me cry.
 A Bm 
Daddy, do you even love me?
 D                
Well I wish you'd show it,
 Dm 
Cause I wouldn't know it.
 A 
What kind of dad eats his daughter's fries?
 Bm 
And doesn't look her in the eyes?
 D 
Daddy there were tears there.
 Dm  or  A 
If you saw them would you even care?