Tag: after

Run Towards Your Fears chords by Cigarettes After Sex

INTRO:
C   Em   Dm   G

GUITAR 2: (Starts at the Dm chord)
           Dm
         E -1-0-1-0-1-0-1-0-1-0-1-0-1-0-1-0-
         B ---------------------------------
         G ---------------------------------
         D ---------------------------------
         A ---------------------------------
         E ---------------------------------


VERSE:
 C
Here,
       Em
Right here
      Dm
When it's too much
    G
For me to take

 C
They
             Em
Can't see straight
      Dm
When it's too much
     G
For you to take


CHORUS:
  C              F   Am  G
You're the only one
  C              F   Am
You're the only one
 G            C   Em  Dm  G
I'm the only one


VERSE:
  C
You're
            Em
Dressed in black
     Dm
And following
     G
The purple string

    C
So run
              Em
Towards your fears
      Dm
When it's too much
     G
For you to take


CHORUS:
  C              F   Am  G
You're the only one
  C              F   Am  G
You're the only one
  C              F   Am
You're the only one
 G            C  F   Am  G
I'm the only one


INSTRUMENTAL:
F  C  Am  C
F  C  Am  C
F  C  Am  C
F  C  Am  C


BREAK:
        F
I can't
        C
Believe
        G
The way
           C
You breathe
      F
On the
      C
Mirror

Leaves
  G     C
Of-ten marks

   F
I draw
      C
Your name
   G
Inside
      C
The cloud

      F
You laugh
    C
So what
   G
Begins?


CHORUS:
  C              F   Am  G
You're the only one
  C              F   Am  G
You're the only one
  C              F   Am
You're the only one
 G            C  F   Am
I'm the only one
 G            C  F   Am  Em  Dm  Dm  G  G
I'm the only one


OUTRO:
C   Em   Dm   G   C

After Texas chords – Darrell McCall

 G D7 
Where do you go after Texas 

                      G 
What do you do after Texas

                G7 C Am 
You’re just fooling yourself if you think there’s something else

       D7 G 
Cause there ain’t nothing left after Texas


                                                     D7 
I watched them changing the guard in old London and liked it

                                                        G 
I’ve been up to my ears in that good German beer and I liked it

                      G7 
But whatever you got I’ve probably seen it

   C 
I don’t like to brag but neighbor I mean it

       D7 G 
There ain’t nothing out there that will halfway compare to Texas


 G D7 
Where do you go after Texas 

                      G 
What do you do after Texas

                G7 C Am 
You’re just fooling yourself if you think there’s something else

       D7 G 
Cause there ain’t nothing left after Texas


                                                D7 
I’ve held wahines with hay on their hips and I liked it

                                                 G 
I’ve kissed senoritas with hot fiery lips and I liked it

                               G7 
If there’s one thing for sure that makes this cowboy fall

        C 
It’s a soft Texas lady with a south Texas drawl 

    D7 G 
If you know to be there then I’d rather crawl across Texas
  

 G D7 
Where do you go after Texas 

                      G 
What do you do after Texas

                G7 C Am 
You’re just fooling yourself if you think there’s something else

       D7 G 
Cause there ain’t nothing left after Texas


 G D7 
Where do you go after Texas 

                      G 
What do you do after Texas

                G7 C Am 
You’re just fooling yourself if you think there’s something else

       D7 G 
Cause there ain’t nothing left after Texas


 G D7 
Where do you go after Texas
 
                      G 
What do you do after Texas

                G7 C Am 
You’re just fooling yourself if you think there’s something else

       D7 G 
Cause there ain’t nothing left after Texas

After All chords – Joni Harms

 C F C 
After all we've been through together

                                        G7 
Who'd believe we'd still be so much in love

       C C7 F 
After all it just keeps getting better

                    C G7 C 
There's no one for me but you after all


        G7 F C 
Before you  love was only in my dreams

                 G7 C 
And through the years we've made a few come true

             D7 G7 
No we can't say that love's always easy

          D7 G7 
But it's always worth it with you


 C F C 
After all we've been through together

                                        G7 
Who'd believe we'd still be so much in love

       C C7 F 
After all it just keeps getting better

                    C G7 C 
There's no one for me but you after all


 C F C 
After all we've been through together

                                        G7 
Who'd believe we'd still be so much in love

       C C7 F 
After all it just keeps getting better

                    C G7 C 
There's no one for me but you after all


 F C G7 F C 
No there's no one for me but you after a--ll

After Hours chords – Caribou

 Caribou - After Hours


INTRO

 F Ab Gm C F 

e|-------13----|
B|----------13-|
G|-------------|  this is played by a second guitar. It is continued throughout the song, 
D|-------------|  at the end of every 1st and 3rd chord of each line
A|-------------|  (listen to the song if you're not sure when to play this)
E|-------------|


vERSE 1
 F Ab Bb C 
 And you and I will follow down the street 
 F Ab Bb C 
 And when the rivers end into the sea 
 Db Cm Bbm 
 While I remember what you mean to me 

 F F Ab Bb C 
 And you and I, a spiral spinning round 
 F Ab Bb C 
 And standing in a circle on the ground 
 Db Cm Bbm         
 I'll follow you until you wear me out

 F  


SHORT INSTRUMENTAL BREAK

jamming in F


VERSE 2
 F Ab Bb C 
 And in your summer sky and in the air 
 F Ab Bb C 
 Have you forgotten how you got us here 
 Db Cm Bb           
 While I remember how much I care 

 F 


LONG INSTRUMENTAL BREAK

 Bb C F Gm Am Bb Ab Bb Gm Bb C 

- repeat the intro

- play in F, while a second guitar plays this:

e|------------|
B|------11/13-|
G|-(10)-------|  this goes on for quite some time
D|------------|
A|------------|
E|------------|

then -around [3:34]- the drum and bass stop playing, the riff above continues over these chords:

 F Ab Db Eb 

- then the drum kicks in shortly, over an F chord

- then the chords of the verse are played acoustically


VERSE 3 (also acoustic)
 F Ab Bb C 
 And in a dream I'm trying to forget 
 F Ab Bb C 
 I feel the blood that rushes to my head 
 Db Cm Bbm                
 I need your love and all the things you've said 

- repeat the chords of the intro, then:

 F 


OUTRO 
 F Ab 
 And in the leaves    \
     Db                  \
And in my mind           x2
        Eb               /
You're always there   /

Someday After A While Youll Be Sorry chords – Eric Clapton V1

 Intro: 
|  D9  |  D9  |  G9  |  Abdim7  |
|  D9 Bm7 |  Em7 A7  |  D D/F# G Abdim7  |  D A7  |

Verse 1 -------------------------------------------------
      D9 G7 
I got to ride that lonesome train. My heart is heavy with
 Abdim7 D Bm7 
aches and pain. I said but someday, someday baby, after
 Em7 A7 D D/F# G Abdim7 D A7     
a while,   you will be sorry.

Verse 2 -------------------------------------------------
    D9 G9 Abdim7 
Every day my clouds are grey, takes you to roll all those
                     D9 Bm7 
clouds away. I said that but someday, someday baby,
         Em7 A7 D D/F# G Abdim7 D D7 
after a while,   you will be sorry.

Bridge -------------------------------------------------
 G7 D7 
Trouble, trouble, trouble on my mind. Trouble, trouble,
                    E7 
way down the line.    I don't need, I don't need no
              A A11 
sympathy. So babe, babe, don't you,   don't you pity me.

Verse 3 -------------------------------------------------
 D9 G9 Abdim7 
I may be blue, but I don't mind,   because I know way down
                 D9 Bm7 Em7 A7  
the line. I said someday, someday baby,   after a while,
          D D/F# G Abdim7 D Eb9 D9  
you will be sorry.

Pappa Flytta Inte In Till Tjörn chords – Galenskaparna And After Shave

 Pappa, flytta inte in till Tjörn

Galenskaparna & After Shave
From: Åke från Åstol 



 C C/F C F C C/F C A D 
 

Åke:
 G D 
Kom min son. Sätt dig här näre mej.
 Dm C 
Jag har nåt att säje dej.
        Eb G 
Du får löva att vara en riktig man
     C/A Am D 
som bara vi öbor kan.
 G D 
Fabrikörn, han har stängt salterit.
 Dm C 
Aldrig mer får jag gå dit.
       Eb G 
Men i Skärhamn finns kurser för starke män
    C/A Am D 
så jag måste dit, min vän. 



Sigvard:
        Dm Fm C 
Men då måste du ta färja härifrån. 



Åke:
         Am C Dm    
Jag har inte något val tyvärr min son. 



Sigvard:
 Dm G G7 C G Am C 
Nej, snälla pappa, flytta inte in till Tjörn.
           F C 
Där finns rök och Volvo-bilar,
 Dm F G 
fullt av moskit.
        C G Am C 
Varför måste han, den dumme fabrikörn
       F C 
sluta upp å salta sillar
       D D7 Gsus G 
där i sillesalterit. 



Åke:
 Ab Eb 
Gråt inte, pojken min, ingen vill
        Fm Ab G 
längre köpa vår finfine sill. 



Sigvard:
             C G A 
Nej, snälla pappa, flytta inte in till Tjörn.
           Dm C F G C 
Där finns gangsters och spioner och troligtvis Grizzlybjörn. 

                                    Åke:
                                    Finns det björn på Tjörn?
 C C/F C F C C/F C A D        Sigvard:
                                    Jag tror det. 
                                    Åke:
                                    Harre min je.
                                    Sigvard:
                                    Små...


Åke:
 G D 
Gossen min, tänk på de store män
 Dm C               Sigvard:
som har gjort historien.            Vilka då?
         Eb G 
Dom som trotsade djungel å glaciär.
    C/A Am D         Sigvard:
Därför är vi där vi är.             Men det finns ju ingen glaciär på Åstol...
 G D 
Vidare måste vi karlar gå.
 Dm C 
Ja min pöjk, det är bare så.
        Eb G 
Men du ska veda om att när färja går
       C/A Am D 
blott du mina tankar får. 



Sigvard:
        Dm Fm C 
Men du har ju inte klippkort eller nåt. 



Åke:
       Am C Dm    
Varje karl får bära bördan som han fått. 



Sigvard:
 Dm G G7 C G Am C 
Nej, snälla pappa, flytta inte in till Tjörn.
           F C 
Där finns elake baciller,
 Dm F G 
malaria och pest.
        C G Am C 
Du får inte ta ett steg utanför dörr´n
      F C 
utan att ha tagit piller
       D D7 Gsus G 
och berättat för vår präst. 



Åke:
 <

Dulu Pernah Ada chords – After Rainbow

 Intro :
 D  -  A  -  Bm  -  F# G  -  A  -  D D A Bm F# 
aku percaya takdir menemukan kita
    G A F# Bm 
membuatkan bingkai indah kisah kita berdua
         Em G A D 
saat bersama dan selalu tertawa

 D A Bm F# 
tapi takdir juga yang memisahkan kita
 G A F# Bm 
dengan mudahnya kita dibuat tak berdaya
         Em G A D 
saat cinta hilang membunuh harapan

Reff :
         G A 
cobalah selalu ada dihatiku
          D A Bm  ( Bm  -  A )
meskipun hatiku tak pernah kau tunggu
         Em F# Bm  ( Bm  -  A )
untuk membuatmu tenang disampingku
          G A 
dan bila waktumu tlah habis untukku
         D A Bm  ( Bm  -  A )
ku kan ada disini dan menunggumu
       G A G D 
walau laaang...kahmu s'makin menjauhi..ku


Interlude :
 D  -  A  -  Bm  -  F# G  -  A  -  D D A Bm F# 
tapi takdir juga yang memisahkan kita
 G A F#  -  Bm  -  Em 
dengan mudahnya kita dibuat tak berdaya
         Em G A D 
saat cinta hilang membunuh harapan

Melodi :
 G  -  A  -  D  -  A  -  Bm G  -  A  -  G  -  D  -  G  -  D  -  G  -  D 

Girl voice :
     G A 
dirimu ada dihatiku
      D C# Bm 
dan aku...pun ingin kau tunggu
 Em F# Bm 
daa..n kutenang disampingmu
      G A 
waktuku takkan habis untukmu
      D C# Bm 
tetaplah kau menunggu aku

 G A B ...
Wohooooo...

Reff Akhir :
         A B 
cobalah selalu ada dihatiku
          E B C#  ( C#  -  B )
meskipun hatiku tak pernah kau tunggu
          F# G# C#  ( C#  -  B )
untuk membuatmu tenang disampingku
          A B 
dan bila waktumu tlah habis untukku
         E B C#  ( C#  -  B )
ku kan ada disini dan menunggumu
       A B G G#  -  C#  -  F#  -  B  -  E 
walau laaang...kahmu smakin menjauhi..ku



feel dificult? or have a complain about this tab?
mention @officialDAHAN on twitter or
write on fanpage fb.com/officialdahan :D
thanks guys.

Block After Block chords – Matt And Kim

 First ever tab, I know something's probably very wrong with the key change but it 
should sound fine 
CAPO 2ND FRET 
Chords Used:  G - Bm - Am - C - D 
(Now this is all me, now this is all me)
 G - Bm - G - Bm G 
Watch out for late phone calls
Wheat paste and concrete walls

 Bm 
Go too far, live too long
Time’s too short, right and wrong

 G 
Block after block
Block after block

 Bm 
Roll down gates look the same
Different trips, different trains
——————————————
 G 
Hey friends
                    C 
Break in the back door
And turn it up
 Am .    G .   C .      G .   Bm  
While the lights are out
             Am .   D Bm .  Am .    G  
Eyes closed and shout- ing right now
——————————————
CHORUS:
 G 
Lights turn on
And dark turns up
Side by side
Dream bigger
Next in line
It’s

 Bm 
late
Now this is all me
            D (?)  G  
Now this is all me
——————————————
 G 
Eat when you’re hungry and
Sleep when you’re slipping like

 Bm 
Tired dogs rest their paws
Today we show our flaws

 G 
Block after block
Block after block

 Bm 
It’s one way, now on Wythe
What was left now is right
——————————————
 G .                              C 
Hey friends we’ll jump the turnstiles
And cut it down

 Am .    G .   C .      G .   Bm 
While the lights are out

             Am .   D .     Bm Am .    G  
Eyes closed and shout- ing right now
——————————————
CHORUS
——————————————
 C 
I think it takes a pile of bricks
For us to make a home

 G 
And I’m not sure but I hear
Mountains grow from just a stone

 C 
Block after block
Block after block

 G 
Everything I’ve learned
Every step I took
And street I’ve walked
——————————————
CHORUS

Last Night At Face Value chords – The Mile After V2

 The Mile After - Last Night At Face Value

Verse 1

 G Csus2 D 
   turn off the lights so that i can't see you walking away
 G Csus2 D 
turn off the lights so i can feel you hesitating
 Em7 C G D 
   the last time that i saw you was 4AM...
 Em7 C G D 
   and i've been thinking what to say to you since then
                 G D Em7 C    
it's because of me, flat out 'cause of me
      G C/G D 
oh i never had an excuse

Chorus

 G D Ebm7 D     
   oh no, it's gone and i wanted to feel that way forever
 Gmaj Gsus4 Gmaj D 
   i had to let it go to sleep to see
 G D Ebm7 D  
   it's back, right now and it feels exactly how i remember
 Gmaj Gsus4 Gmaj D 
   i wont be letting go this time when it's all said and done

Verse 2

 G Csus2 D 
turn off the lights so that i can't see you walking away
 G Csus2 D 
turn off the lights so you can feel me waiting
 Em7 C G D 
   the last time that i saw you was 4AM
 Em7 C G D 
   and i've been thinking what to say to you since then
                 G D Em7 C  
it's because of me, flat out 'cause of me
      G C/G D 
oh i never had an excuse;

(Chorus)

Bridge

 G C Em 
   can you feel me too the way i feel you
                        C D 
whenever you're not there?
 G C Em 
   there's a part of me that makes me wanna go
                    C D 
it makes me wanna go,
           Gmaj Gsus4 Gmaj 
but no matter what you tell me i'll be gone until i'm ready;
 C C (?)
did you know that i was there for you?

(chorus)

The Only One chords – The Mile After

 Capo 1

 erogers1992

The Only One - The Mile After

 C F C Am7 G 

Chorus 1
 Am7 F C G C             
   Forgetting is hard when you're the only one

Verse 1
        C F Am7 G        
When i look in your eyes and i still feel the same
             C F Am7  ( G )
I know it's hopeless
        C F Am7 G                      
When i look to the sky and the stars spell out your name
             C F Am7 G 
I know it's hopeless

Pre-Chorus
 Am G F 
   Amnesia, really need ya
 Am G F 
   I wanna lose my mind
                 G 
In a place that i won't find

Chorus 2
 C F G F C Am G F            
   Forgetting is hard when you're the only one
 C F G F C  
   Forgetting is hard when you're the only one
      C/B Am7 
That made things easy
     C/B F 
You make things easy
                                  C 
Your the only one that eases me
 F G F C F G F 
   Your the only one

Verse 2
     C             ( F )         ( Am7 )               ( G )      
I remember the times when my shoulder held your head
             C      ( F )  ( Am7 ) ( G )   
And i would wonder
 C F Am7 G     
How did they find such a perfect fit
        C F Am7 G   
Oh i remember(i never wanted to take you home)

(Pre-Chorus)

(Chorus 2)

Bridge (x2)
 Am F C G 
   So call me now You know that you want to
(I need to hear your voice
To talk me back into existence)

 Am F C G  
   So call me now you know that you want to
(I need to hear your voice)

Outro (x7)
 Am F 
   Forgetting is hard (So call me now)
                     C 
When your the only one (You know that you want to)
                        G 
(I need to hear your voice
To talk me back into existence)

After All chords – Sondre Lerche V2

 Sondre Lerche - "After All"

Been working on a more accurate, less generic version of this song based on how 
Sondre plays (given he has a tendency for some strange chords) it for awhile. Here is what I got.

 C  - x32010
 Am6  - 5x4550
 F  - 133211
 Fm6/D  - x00111
 Ddim  - x56464
 Gm6  - x32330
 Dm9 (b5) - xx0110
 E7 (#5)/ F  - 1x0110
 Em  - 022000
 Gm  - 355333
 Dm9  - 54550

[Verse]

   C Am6  
I like you too much after too little time
   F Fm6/D C 
I hold back my heart's crazy rambling
     C Am6 
The fear that I should overwhelm your smile
 F Fm6/D C 
Frightens the spiders inside me

[Chorus]

 F Ddim Am6 Gm6 
Ohh this could be magic 
         F Dm9 (b5)    C 
After all, after all

[Verse]

**[same verse as the one that begins with "Chew every word"]
     C Am6 
You daren't define what just happened to us
      F Fm6/D C 
Well I've had a name for it for sometime
       C Am6 
While you try to hide what it is that you feel
 F Fm6/D C 
I long to tell you so truly

[Chorus]
 F Ddim Am6 Gm6 
Oh this could be trouble
         F Dm9 (b5)    C 
After all, after all

[Bridge] (And I say...)
 F E7 (#5)/ F Em Gm 
    Is it a dream like it was back then
 F E7 (#5)/ F Em Gm 
    Is it a dream like it was back in the start
 Gm F Em Dm9 
    Could I be so wrong Could I be so wrong

[Instrumental] (listen for timing)

 F  -  E7 (#5)/ F  -  Em  -  Gm F  -  E7 (#5)/ F  -  Em  -  Gm F  -  Em  -  Dm9 

[Last Verse]
** Repeat other verses

[Last Chorus]
**Repeat other choruses

That's it. Please feel free to comment on any correction you may hear/have.

Next In Line chords – After Image V3

 Next in Line

VERSE 1
 D D/F# 
What has life to offer me
 G A/G A 
When i grow old
 D D/F# 
What's there to look forward to
            G A/G A 
beyond the biting cold
 G A 
'Coz they say it's difficult
 G A 
Yes, stereotypical

Verse 2 (Same Chords as Verse 1)
What's there beyond sleep, eat, work in this cruel life
Ain't there nothin' else 'round here but human strife
'Cause they say it's difficult, yes, stereotypical
 G A G A 
Gotta be conventional, you can't be so radical.

Chorus:
       D D/F# 
So i sing this song to all of my age
       G 
For these are the questions
        A 
We've got to face
      D D/F# 
For in this cycle that we call life
 G A 
We are the ones who are next in line.

Repeat Verse1
 G A 
You gotta be conventional,
 G A 
You can't be so radical

Chorus

Bridge:
        D C     
And we gotta work, we gotta feel (we gotta feel)
        G A 
Let's open our eyes and do whatever it takes
     D C 
We gotta work, we gotta feel (we gotta feel)
                G A 
Let's open our eyes, oh-woh

Chorus
And sing this song to all of our age
For these are the questions we've got to face
For in this cycle that we call life
We are the ones who are next in line 

Chord pattern of verse
Sing this song for me
Sing this song for me

Still After All These Years chords – Noah And The Whale

 -------------------------------------------------------------------------------
                             STILL AFTER ALL THESE YEARS - Noah and the Whale
-------------------------------------------------------------------------------
: tunietunes

Tuning: Standard

Capo: 1st fret

     D A Bm G D 
Oh Lisa, lift up your head, light up a cigarette.
 A Bm G A 
In the morning light you're not so hot.
     D A Bm G D 
Oh Lisa, come talk to me, I wanna hear your memories,
 A Bm G A 
you know I thought of you, from time to time.


 G      
Lying with your make-up off,
 A   
I can see the girl I love
 Bm A G 
Dark and brooding, fickle and demure


                D A Bm A 
And I think, still after all these years
                D A Bm     
Oh I think, still after all these years
 A G 
something still burns.


     D A Bm G D 
Oh, Lisa, don't be shy, this is not real life,
 A Bm G A 
this moment will soon be lost in time.
 D A Bm G D 
When it's time to leave don't turn your back on me.
 A Bm G A 
This was no return, our grand farewell.


 G 
Mostly I won't think of you,
 A 
but baby if I ever do
 Bm A G 
I remember thinking with surprise.


       D A Bm A 
That still after all these years,
   D A Bm     
still after all these years 
 A G 
something still burns.

(Key-change in this Pre-Chorus)

 G 
Lying with your make-up off
 Em 
I can see the girl I love,
 C A 
Dark and brooding, fickle and demure.


                E B C#m B 
And I think, still after all these years,
       A G#m F#m    
oh, still something in me.
 E B C#m   
Still after all these years,
 B A 
something still burns.


Enjoy!

Day After Yesterday chords – Agua De Annique

 [Intro]
 A#m G# 


[Verse]

 A#m G# 
Today is the day after yesterday
                            A#m 
And yesterday didn't go so well
 A#m G# 
My love came down and assured me:
                           A#m 
Sit down I have something to tell


[Chorus]

        C# B 
When I met you my eyes hurt
   A#m F# 
That is how beautiful you are
  C# B 
I don't suppose I could feel this way
 A#m F# 
If I still have you by my side
       A#m 
By my side


[Verse]

 A#m G# 
I did not anticipate your candor
                                   A#m 
Even though I didn't know you too well
 A#m G# 
You see one door close another door open
                                   A#m 
But these doors lead me straight to hell


[Chorus]

        C# B 
When I met you my eyes hurt
   A#m F# 
That is how beautiful you are
  C# B 
I don't suppose I could feel this way
 A#m F# 
If I still have you by my side
       A#m 
By my side


[Solo]
(play in Bb minor)

e|----6-8-9----------------------------------------------------------------|
B|------------6-7-9--------------------------------------------------------|
G|-------------------5-6-8-------------------------------------------------|
D|--------------------------8----------------------------------------------|
A|-------------------------------------------------------------------------|
E|-------------------------------------------------------------------------|

e|-------------------------------------------------------------------------|
B|-----6---6-----9-7-7---6---6----------6-7-6---6--------------------------|
G|-------8-----------------8--------6-8-------8-----6--6-535------6-8------|
D|-------------------------------------------------------------------------|
A|-------------------------------------------------------------------------|
E|-------------------------------------------------------------------------|


[Verse]

 A#m G# 
If I just broken all
 F#             
I gave it all
 A#m G# 
That is how tired
 F#                     
I don't suppose I could feel all this way 


[Outro]
(repeat solo)

The Band With No Name Tabs by Ten Years After

 ---------------------------------------------------------------------------
                  THE BAND WITH NO NAME – Ten Years After
                                (Alvin Lee)
                                Watt [1970]
---------------------------------------------------------------------------

: varannion
Email:     dm_hughes1@hotmail.com

Tuning: standard

'The Band With No Name' is a short (1:36) guitar instrumental comprising 36 
bars: a 4-bar intro and two 8-bar themes, both of which are repeated. Think 
of it as an Alvin Lee meets Ennio Morricone piece. It certainly wouldn't be 
out of place on the soundtrack of a Sergio Leone spaghetti western or even a 
Quentin Tarantino movie.




    12-string acoustic guitar
      Dm
e|----------------------------|--------------------------|
B|----------5--6--5--6--------|--------5--6--5--6--------|
G|-------7--------------7-----|-----7--------------7-----|
D|----7--------------------7--|--7--------------------7--|
A|----------------------------|--------------------------|
E|----------------------------|--------------------------|



      Dm
e|----------------------------|--------------------------|
B|----------5--6--5--6--------|--------5--6--5--6--------|
G|-------7--------------7-----|-----7--------------7-----|
D|----7--------------------7--|--7--------------------7--|
A|----------------------------|--------------------------|
E|----------------------------|--------------------------|
 |  6-string electric guitar w/heavy tremolo
e|----------------------------|--------------------------|
B|----------------------------|--------------------------|
G|----------------------------|--------------------------|
D|----------------------------|--------------------0--2--|
A|----------------------------|-----------------0--------|
E|----------------------------|--------------------------|



      F                          C
e|----------------------------|--------------------------|
B|----------5--6--5--6--------|--------3--5--3--5--------|
G|-------7--------------7-----|-----5--------------5-----|
D|----7--------------------7--|--5--------------------5--|
A|----------------------------|--------------------------|
E|----------------------------|--------------------------|
 |
e|----------------------------|--------------------------|
B|----------------------------|--------------------------|
G|----------------------0-----|--------------------------|
D|----3--------------------3--|--2--0--------------------|
A|----------------------------|--------3--------------0--|
E|----------------------------|--------------------------|



     Dm
e|----------------------------|--------------------------|
B|----------5--6--5--6--------|--------5--6--5--6--------|
G|-------7--------------7-----|-----7--------------7-----|
D|----7--------------------7--|--7--------------------7--|
A|----------------------------|--------------------------|
E|----------------------------|--------------------------|
 |
e|----------------------------|--------------------------|
B|----------------------------|--------------------------|
G|----------------------------|--------------------------|
D|----0-----------------------|--------------------0--2--|
A|----------------------------|-----------------0--------|
E|----------------------------|--------------------------|



      F                          C
e|----------------------------|--------------------------|
B|----------5--6--5--6--------|--------3--5--3--5--------|
G|-------7--------------7-----|-----5--------------5-----|
D|----7--------------------7--|--5--------------------5--|
A|----------------------------|--------------------------|
E|----------------------------|--------------------------|
 |
e|----------------------------|--------------------------|
B|----------------------------|--------------------------|
G|----------------------0-----|----------------

Portable People Tabs by Ten Years After

 -------------------------------------------------------------------------------
                             Portable People - Ten Years After
-------------------------------------------------------------------------------
Album : Alvin Lee and Company (1972)
Tempo : 167
 gwendal.mollo@orange.fr
: newg

The guitar is a open A (EAEADbE)

Live version : http://www.youtube.com/watch?v=Qna-9B0CFb8


  Intro :

E |------------------------------------------------------------------------|
C#|--5--8-----------8-----------------------8-----------5s----------3s-----|
A |--4--7-----------7-----------------------7-----------4s----------2s-----|
E |-----0-----------0-----------------------0------------------------------|
A |------------------------------------------------------------------------|
E |------------------------------------------------------------------------|


--------------------------|
5-------------------------|
4-------------------------|
--------------------------|
--------------------------|
--------------------------|


-------------------------------------------------------------------------------|
--0-----------------------------------------------1--3-----------3-------------|
--0-----------------------------------------------2--4-----------4-------------|
--0-----------------------0----------------------------------------------------|
-------------------------------------------------------------------------------|
-------------------------------------------------------------------------------|


-----------------------|----------------------------|
---------3-------------|----------------------------|
---------4-------------|--2h-0--------------0h-2----|
-----------------------|--------2-----0h-2----------|
-----------------------|----------------------------|
-----------------------|----------------------------|

        ^  v     ^  v  ^             ^  v     ^  v  ^
--------5--5-----5--5--5----|--------5--5-----5--5--5----||
--------0--0-----0--0--0----|--------0--0-----0--0--0----||
--0-----0--0-----0--0--0----|--------0--0-----0--0--0----||
-----------5--------5-------|--5--------5--------5-------||
----------------------------|--0-------------------------||
----------------------------|----------------------------||

Verses :
       ^  v     ^  v  ^
-------5--5-----5--5--5----|
-------0--0-----0--0--0----|
o------0--0-----0--0--0----|
o5--------5--------5-------|
-0-------------------------|
---------------------------|

                          ^
--------------------------5------------------------------------------------|
--------------------------0------------------------------------------------|
--------------------------0-----------------------2s-4---------------------|
--------------------------5--------------------------------------0h-----2--|
--0------------------------------------------------------------------------|
---------------------------------------------------------------------------|


-----------------------|
-----------------------|
---------0-------------|
-----------------------|
-----------------------|
-----------------------|

                                                                             ^
---------------------------------------------------------------------------|
------------------------------------------------------------------------0--|
---------0-----------2s-4-----------------------------------0-----------0--|
-----------------------------------------0h----------2------------------0--|
---------------------------------------------------------------------------|
---------------------------------------------------------------------------|

                                ^  v     ^  v  ^
-----------------------|--------5--5-----5--5--5----|
-----------------------|--------0--0-----0--0--0----|
-----------------------|--------0--0-----0--0--0----|
---------

Portable People chords – Ten Years After

 -------------------------------------------------------------------------------
                             Portable People - Ten Years After 
-------------------------------------------------------------------------------
Album : Alvin Lee and Company (1972)
Tempo : 167
 gwendal.mollo@orange.fr
: newg

The guitar is a open A (EAEADbE) but this is for standard tuning 

Chords :  E  (x79997)
 
Riff intro 

 A  
See them at the airport with their cases in their hand
                          E A 
Got a ten day package in another land
They're the jet age gypsies with a super-sonic sound
                                       E A 
They're the portable people, and they take themselves around

Chorus :
 D D C A  
Portable people, flyin' in the air
 E D C A  
Portable people, goin' everywhere
 A  
Por....ta....ble - Peo....ple!

Riff intro 

Bridge : 
 A D A A E A        Repeat 2 times

Riff intro 

 A 

See them at the window with a panoramic view
                                             E A 
It's the only time they've noticed that the sky is colored blue
One will have a cloak and a pair of wooden clogs
                              E A  
He liked the avocado, but he didn't like the vase

Chorus

Bridge

Jive After Five chords – Carl Perkins

 Jive After Five:Carl Perkins.
#10 on Rocck Charts on COLUMBIA Records
in 1958.

INTRO:  A 

#1.
 A 
I work all day as a soda jerk..on my feet all the time 

and oh, man, how they hurt.
 D A 
Don't make much, but I sure get the news..I don't have 

much time for gettin' the blues.
 D A 
My friends drop in for sodas and pop, they're all talking, 

fancy about a new record hop.

#2.
 D A 
All day long I'm a-fillin' orders..takin' in nickels, dimes 

and quarters.
 D A 
Cherry sodas and a chocolate shake, strawberry sundaes and a 

lemon phosphate.
 E A 
Time to clean the fountain, 'cause it's almost five..you know me, 

dad, after five I jive.

CHORUS:
 A 
I wanna jive, uh-huh-huh-huh, I wanna jive..ooo-hooo-hooo-hooo, 
         D A 
I wanna jive, yes, after five.
                       E A 
uh-huh-ho-ho, I wanna jive, man alive, after five.

#3.
 A 
Well, I mop the floor and I wipe the counter..I just work here dad, 

I'm not the founder.
   D A 
I keep a-workin' and a-watchin' the clock..a-peepin' out the window 

for my baby to stop.
       E A 
We'll head out of town to a little night dive..because you know me dad, 

after five I jive.

#4.
 A A7 
All day long I'm a-fillin' orders..takin' in nickels, dimes and quarters.
 D A 
Cherry cokes and a tall root beer, a cone of vanilla with a chocolate spill.
 E A 
Time to clean the fountain, 'cause it's almost five..you know me dad, after 

five I jive..I wanna jive.

CHORUS:
 A 
I wanna jive, I wanna jive, ooo-hooo-hooo and then I jive.
               E A 
Yeah, I wanna jive, yes, man alive..come on, now, cat, let's jive.
 A D                     
Everybody rock, I wanna jive..ah-ah-ah, I wanna jive..ooh-ooh-ooh, I wanna jive.
              A E A 
Yes, I wanna jive, man alive, I wanna jive, Jive, jive after five.


A fifties smash from Kraziekhat.

My Baby Left Me Tabs by Ten Years After

 --------------------------------------------------------------------------------------
                          MY BABY LEFT ME – Ten Years After
                                     (Alvin Lee)
                                     Watt [1970]
--------------------------------------------------------------------------------------

: varannion
Email:     dm_hughes1@hotmail.com

Tuning: standard

'My Baby Left Me' comprises three chords: D, C & G. Conventional wisdom would dictate 
that this is a V-IV-I progression in the key of G. However, the riffs & solos are in D 
which instead indicates that this is the true key signature of the song. Thus we have 
A I-bVII-IV progression in D, that is, D-C-G.

For the solos (not detailed here), Alvin eschews his usual rapid-fire approach and 
instead adopts a less-is-more technique, substituting feel, repetition & vibrato for 
his (10th fret) D minor pentatonic phrases.




Intro

| D        | D        |


Verse 1

D
My baby left me
C
She wouldn't tell a lie
G
'Cause she said she would, she did
        D
And she left me high and dry
D
My baby left me
C
Last night I heard her cry
G
She wouldn't tell me why
              D
She just said bye-bye

riff 1


Verse 2

D
I used to sing the blues
C
I thought I sang for real
G
Now I know the feel
                 D
And it hurts too much

riff 1

D
My baby left me
C
She left me all alone
G
She's never coming home
              D
And I want to die

riff 1


Verse 3 (double time over riff 2)

D
My baby left me
C
She wouldn't tell a lie
G
'Cause she said she would, she did
        D
And she left me high and dry
                     D
My, my, my, my baby left me
C
Last night I heard her cry
G
She wouldn't tell me why
              D
She just said bye-bye

Bye-bye-bye, everybody


Guitar solo

| D        | C        | G        | D        |

| D        | C        | G        | D        |

(end double time)


Verse 4

D
My baby left me
C
She wouldn't tell a lie
G
'Cause she said she would, she did
        D
And she left me high and dry

riff 1

D
My baby left me
C
Last night I heard her cry
G
She wouldn't tell me why
              D
She just said bye-bye

riff 1


Verse 5 (double time over riff 2)

D
I used to sing the blues
C
I thought I sang for real
G
Now I know the feel
                 D
And it hurts too much

My my my my my my
D
My baby left me
C
She left me all alone
G
She's never coming home, baby
              D
And I want to die
D
My baby left me
C
My baby left me
G
My baby left me
D
My my my my my my


Outro guitar solo

| D        | C        | G        | D        |

| D        | C        | G        | D        |

| D        | C        | G        | D        |

| D        | C        | G        | D        |

| D        | C        | G        | D        |

| D        | C        | G        | D        |





  riff 1

      D
e|------------------------------|----------------------------|
B|----3--3----------------------|----------------------------|
G|----------4b5r4--2--4---------|----------------------------|
D|-----------------------3b4r3--|--0-------------------------|
A|------------------------------|----------------------------|
E|------------------------------|----------------------------|




  riff 1                            riff 2
                                                  bss bss
      D   
e|-------------------------------|------------------------------------|
B|-------------------------------|------------------------------------|
G|----7--7-----------------------|----------------7--7----------------|
D|----------9b10r9--7--9---------|-----------7h9--------9b10r9--7--9--|
A|------------------------8b9r8--|--5----/9---------------------------|
E|-------------------------------|------------------------------------|


   

After The Disco chords – Broken Bells

 After the Disco Chords
Broken Bells

[Intro]
 Bm A E Bm 
After your faith has let you down
               A E 
I know you'll want to run around
                Bm 
And follow the crowd into the night
               A E Bm 
But after the disco all of the shine just faded away
                          A E 
Oh oh oh oh, do what you want, do what you will
                    Bm 
Don't tell me it's not our time

[Chorus]
           B 
Cause I'm waiting here much too long and
 G A                
Don't assume, that I need your 
 B 
love. The chill of night has got you dancing away and I'm
 G A 
Not the dreamer, or the dream you're
 Em 
Out there looking for
 Bm A E 
How did I get in this winding maze of love?
             Bm 
And there's something wrong and it's sending you
 A E 
round and round til we go nowhere

[Instrumental]
 Bm A E Bm 
I see the ashes on the ground
            A E 
I know the world is burning down
               Bm 
And under the cold and empty moon
               A E Bm 
But after the disco all of the shine just faded away
                          A E 
Oh oh oh oh, do what you want, do what you will
                    Bm 
Don't tell me it's not our time

[Repeat chorus]