Tag: airplane

Go To Her intro Tabs – Jefferson Airplane

 -------------------------------------------------------------------------------
                        GO TO HER - Jefferson Airplane
-------------------------------------------------------------------------------
: sezar
 keanu-rimedorf@hotmail.com

Tuning: Standart

Am - Em - Am - D -

e|-0-1-0-----------|
B|-------3-1-------|
G|-----------2-----|
D|-------------2-0-|
A|-----------------|
E|-----------------|

Am - Em - Am - D -

e|-----------5-3-5-|
B|-5-3-1-3-1-------|
G|-----------------|
D|-----------------|
A|-----------------|
E|-----------------|

Am - Em - Am - D -

e|-5-3-0-----------0---------------|
B|-------3-1---------3-1-3-1-------|
G|-----------2-0-2-----------2-0-2-|
D|---------------------------------|
A|---------------------------------|
E|---------------------------------|


************************************

| /   slide up
| \   slide down
| h   hammer-on
| p   pull-off
| ~   vibrato
| +   harmonic
| x   Mute note
| b   Bend
| pb  Pre-bend
| br  Bend release
| pbr Pre-bend release
| brb Bend release bend

************************************

Dont Slip Away intro Tabs – Jefferson Airplane

 -------------------------------------------------------------------------------
                        DON'T SLIP AWAY - Jefferson Airplane
-------------------------------------------------------------------------------
: sezar
 keanu-rimedorf@hotmail.com

Tuning: Standart

e|--5/11-11\9--9---9\7-7\5-5-------------------------------------------------|
B|--7/12-12\10-10-10\9-9\7-7-------------------------------------------------|
G|---------------------------------------------------------------------------|
D|---------------------------------------------------------------------------|
A|---------------------------------------------------------------------------|
E|---------------------------------------------------------------------------|

************************************

| /   slide up
| \   slide down
| h   hammer-on
| p   pull-off
| ~   vibrato
| +   harmonic
| x   Mute note
| b   Bend
| pb  Pre-bend
| br  Bend release
| pbr Pre-bend release
| brb Bend release bend

************************************