Tag: alabama

Alabama Nigger Chords by Johnny Rebel

[Intro]
D G D A D

[Chorus]
D                             G        D
I'm an Alabama Nigger and I wanna be free
 D                      A   D
Hell with the N double A C P

[Verse]
I dont drink
G
I dont cuss
D                   A                D
I wanna ride on the front of the bus

[Chorus]
 D                           G         D
I'm an Alabama Nigger and I wanna be free
D                      A   D
Hell with the N double A C P

[Verse]
D                      G            D
I wanna eat where the white folks eat
  D                     A            D
cause I'm white on the bottom of my feet.

[Verse]
 D                           G        D
I'm an Alabama Nigger and I wanna be free
  D                     A   D
Hell with the N double A C P

[Instrumental]
G D A D

[Verse]
 D                      G           D
We dont screw like the white folks do
D                  A      D
we just screw til we get through

[Chorus]
 D                            G       D
I'm an Alabama Nigger and I wanna be free
 D                  A      D
Hell with the N double A C P

[Verse]
 D                G        D
I wanna be white more and more
 D                      A          D
so i can bitch at the nigger next door

[Chorus]
 D                           G        D
I'm an Alabama Nigger and I wanna be free
  D               A        D
Hell with the N double A C P

[Instrumental]
G D

[Verse]
 D                   G    D
I'm glad this tune came along
 D                    A      D
we done wore out one nigger song.

[Chorus]
  D                          G        D
I'm an Alabama Nigger and I wanna be free
  D                     A   D
Hell with the N double A C P

[Verse]
   D              G           D
I wanna be white dont you understand
D                         A          D
so I can play in a trashy white band

[Chorus]
  D                           G        D
I'm an Alabama Nigger and I wanna be free
  D                    A     D
Hell with the N double A C P
       D                    G          D
I'm an Alabama Nigger and I wanna be free
D                      A   D
Hell with the N double A C P

[Outro]
A D

All American chords – Alabama

 “All American,” Alabama (75 bpm)        
Intro:  F F 
There’s a strip mall round the corner, lease signs in every window.
     Bb F Gm 
And fear in almost all my neighbors’ eyes.
            F 
There’s a disconnect between the politicians and the people 
       Bb F Gm 
We know half the time they’re gonna lie. 
         Bb Dm C 
Aren’t we all on the same side?

             Bb 
There’s no us and there’s no them. We’re all out there on a limb.
             Dm 
There’s no Kings and there’s no Queens
         C 
Just a pot of melted dreams
             Bb 
What makes us so quick to fight?
         Am 
No one wants to compromise 
     Gm Am Bb 
Sometimes it’s all so hard to understand. 
          Dm Bb                 
Aren’t we    all American?

 F F 
We can’t agree on nothing, even as our country 
    Bb F Gm 
Is hanging in the balance by a thread. 
         F 
There’s bonuses for bosses and bankers hiding losses 
            Bb Am Gm 
While our leaders close their eyes and turn their heads, 
         Bb Dm C 
Aren’t we all on the same side?

 F 
What if my son’s class was closing down
         C 
my brothers house the bank sold out, 
     Dm 
My father’s farm we could not save. 
    Bb 
My mother lost her job today 
     F 
My wife just said tuition’s more 
   C 
Another year we can’t afford 
         Bb 
So our daughter’s dropping out of school 
                                 Am 
If this was me, what would I do?

 Bb Bb           
There’s no us and there’s no them. We’re all out there on a limb.
              Dm 
There’s no Kings and there’s no Queens 
         C 
Just a pot of melted dreams
 Am Bb 
What makes us so quick to fight?
         Am 
No one wants to compromise 
     Gm Am Bb 
Sometimes it’s all so hard to understand. 
 F Gm F Bb 
Get back to being neighbors, family, and friends, 
         Dm C Bb 
Aren’t we all American?

Where Could I Go solo Tabs by Ben Harper And The Blind Boys Of Alabama

 ---------------------------------------------------------------------------------------------------
                               Artist - Ben Harper & The Blind Boys of Alabama
                              *************************************************
                                          Song - Where could I go
                                         *************************
                                            - Ayreon77
                                          **********************
---------------------------------------------------------------------------------------------------
Tuning = Standard



e|--b-------|-------10---p---------------------------|------------------------------|
B|-13-~~~~~-|--b-10----13-10--brp--------h-------p---|--brp--------h-----h---p------|
G|----------|-12-------------12--10----10-12---12-10-|-12--10----10-12-10-12--10----|
D|----------|-----------------------12---------------|--------12-----------------12-|
A|----------|----------------------------------------|------------------------------|
E|----------|----------------------------------------|------------------------------|

                                              b            
e|----------------------------|-------10--b--13~~~~~~~--13~~~~~-|-10-10--b-|
B|-----------------brp--------|--b-10----13---------------------|-------13-|
G|----10----10----12--10----s-|-12------------------------------|----------|
D|-12----12----12--------12-\-|---------------------------------|----------|
A|----------------------------|---------------------------------|----------|
E|----------------------------|---------------------------------|----------|


e|-------10---p-------------|-------------------------------------------------|
B|--b-10----13-10--brp------|---h-----h-----------h-----h-----------h---------|
G|-12-------------12--10----|-10-12-10-12-10----10-12-10-12-10----10-12-10----|
D|-----------------------12-|----------------12----------------12----------12-|
A|--------------------------|-------------------------------------------------|
E|--------------------------|-------------------------------------------------|


e|-------10---p----------------|--------------------------|----------------|
B|--b-10----13-10--brp---------|---------------h----------|----------------|
G|-12-------------12--10----10-|-----s---10--10-12-10---s-|-s------------s-|
D|-----------------------12----|-8-10\12--------------12\-|-\10-10-10-10-\-|
A|-----------------------------|--------------------------|----------------|
E|-----------------------------|--------------------------|----------------|

Why Lady Why chords – Alabama V2

 (Intro)  C ,  Bm ,  C ,  Em ,  G Em G 
Why lady why, can't I leave you alone
            Em G 
I try lady try, but the feeling's too strong
                C , Cadd9B,  Am Em 
You stay on my mind,     feel just like a fool
          Am G 
Why lady why, can't I get over you

(Intro)

          Em G 
Why lady why, it was easy before
            C G 
I try lady try, but it ain't easy no more
             C , Cadd9B,  Am Em 
To be on my way,     would be the best thing to do
          Am G 
Why lady why, can't I get over you

(Intro)

          Em G 
Why lady why, can't I leave you alone
            Em G 
I try lady try, but the feeling's too strong
       Am , Cadd9B,  C , Cadd9B,  Am Em               
To be on  my way,              would be the best thing to do
          Am Em G 
Why lady why, can't I get over you... 


(Intro)
(Verse)

Hold On Tabs by Alabama Shakes V4

 This is Heath's Lead guitar parts in their official 'Hold On' video:


Standard tuning.

Start (Palm mute)

E|-----X--------X--------X-----------------|
B|-----X--------X--------X-----------------|
G|-----X--------X--------X-----------------|
D|-----X--------X--------X-----------------| X2
A|--3--X--3--3--X--3--3--X----3----3-------|
E|--3--X--3--3--X--3--3--X--5----5---5--5--|

Verse 1, 2, 3.

E|-------------------------------------|
B|-------------------------------------|
G|-------------------------------------|
D|-------------------------------------|
A|-----7-----3-----------3-----3-------|
E|--5-----5-----5--3--5-----5-----5----|

Chorus 1, 2, 3.

First part

E|------------------------------------------------------------------------------|
B|------------------------------------------------------------------------------|
G|------------------------------------------------------------------------------|
D|---------10---------10----------------10---------10----------------10---------|
A|--10h12------10h12------10h12--10h12------10h12------10h12--10h12------10h12--|
E|------------------------------------------------------------------------------|


E|--------------|
B|--------------|
G|--10--10/12---|
D|--12--12/14---|
A|--------------|
E|--------------|

Second part

E|------------------------------------------------------------------------------|
B|------------------------------------------------------------------------------|
G|------------------------------------------------------------------------------|
D|---------10---------10----------------10---------10----------------10---------|
A|--10h12------10h12------10h12--10h12------10h12------10h12--10h12------10h12--|
E|------------------------------------------------------------------------------|


E|--------------|
B|--------------|
G|--10/12--10---|
D|--12/14--12---|
A|--------------|
E|--------------|

Third part

E|------------------------------------------------------------------------------|
B|------------------------------------------------------------------------------|
G|------------------------------------------------------------------------------|
D|---------10---------10----------------10---------10----------------10---------|
A|--10h12------10h12------10h12--10h12------10h12------10h12--10h12------10h12--|
E|------------------------------------------------------------------------------|

E|--------------|
B|--------------|
G|--10--10/12---|
D|--12--12/14---|
A|--------------|
E|--------------|

Fourth Part

(b>): Bend up (b )------12(b

Alabama Mississippi chords – Jonathan Russell

 Intro:  C ,  F C 
Was is Alabama?
              F 
or Maybe in Mississippi?
        C 
Was it religion?
               F 
Or just their sympathy
 G 
That ruined you're goddamn family
 F 
I'm not a kid I'm like a kite

I can't just go out and fly when I want to


 F 
Now I'm waiting around for the sun to go down


 F 
And I miss you like hell
                Dm 
You know I do Mary Bell


 A 
So you didn't build the empire
 D 
You always said you would
 Fm 
You broke so many promises
 E A 
It ain't no good
 D Dm 
and now you're waiting around
 D Dm 
you're just waiting around


 C 
So was it Alabama?
             F 
or maybe in Mississippi 
    C 
was it religion
               F 
or just their sympathy
 G F C 
that ruined you're goddamn family

Tender Tennessee Christmas chords – Alabama

 G Em C D Dsus4 D 
Come on weather man give us a forecast snowy white
 G Em C D Dsus4 D 
Can't you hear the prayers of every childlike heart tonight
 C G 
Rockies are calling, Denver snow falling
 D G 
Somebody said it's four feet deep
     C G 
But it doesn't matter, give me the laughter
 D7 
I'm gonna choose to keep


Chorus:
         G C 
Another tender Tennessee Christmas
     D G 
The only Christmas for me
           G Bm 
Where the love circles around us
          Am7 D Dsus4 D 
Like the gifts around our tree
        G Bm7 
Well I know there's more snow up in Colorado
         Dm7 C 
Than my roof will ever see
       C D G Em 
But a tender Tennessee Christmas
        Am7 D G 
Is the only Christmas for me



Every now and then I get a wandering urge to see
Maybe California , maybe tinseltown's for me
There's a parade there, we'd have it made there
Bring home a tan for New Year's Eve
Sure sounds exciting, awfully inviting
Still I think I'm gonna keep


Chorus 2:
Another tender Tennessee Christmas
The only Christmas for me
Where the love circles around us
Like the gifts around our tree
Well they say in L.A. it's a warm holiday
It's the only place to be
But a tender Tennessee Christmas
Is the only Christmas for me



Well I know there's more snow up in Colorado
Than my roof will ever see
But a tender Tennessee Christmas
Is the only Christmas for me
But a tender Tennessee Christmas
Is the only Christmas for me

Mansion On The Hill chords – Alabama 3 V2

 Alabama 3
Mansion on the Hill
Based on the track from The Last Train To Mashville, Vol.2

This is a pretty slow choon on the album and there is some finger picking, hammering and 
sliding but it’s all based on these chords I think so it’s a great one to improv on and 
muck about with.

Intro

 A C D A C D A 
I hit the dance floor around about midnight
     C D 
Gin and juice and I was feelin’ fine
  A 
Come the morning all the sounds went up
 C D 
Police man said the joint was shut
 A 
All the brothers gettin' busted outside
 C D 
Undercover officers readin' them their rights
 A 
It’s a one way ticket boys you’re prison bound
 C D 
The night the lights in Dallas went down


Chorus

So
 A 
How long we gotta wait until
 F D A 
We get the keys to the mansion on the hill
 A 
How long we gotta waste our time
 F D A 
Boardin' a bus that's bound for the welfare line

 A C D A 
She shakes the blues off then she tries her luck
 C D 
Makes a little bet, hopes her horse comes up
 A 
She’s pickin' pockets for some easy money
 C D 
Blew the damn lot on the lottery
 A 
She steals a paper, checks the front page
 C D 
Headlines read the dancehall can't be saved
 A 
How can they open up an opera house
 C D 
The night the lights in Dallas went down

Chorus

So
 A 
How long we gotta wait until
 F D A 
We get the keys to the mansion on the hill
 A 
How long we gotta waste our time
 F D A 
Boardin' a bus that's bound for the welfare line

 A F D D A 
Welfare line…

 A C D A 
Tweek freak Tony on the four two eight
 C D 
Special branch sting right time wrong place
 A 
Columbian connections in the corridors of power
 C D 
Mean the man on the money ain't ever goin' down
 A 
Lord Lucky takes his lady to the Magic Flute
 C D 
Little taste or two thinks he's bullet proof
 A 
Tony tunes the underground radio
 C D 
On the night the lights in Dallas went down

Chorus

So
 A 
How long we gotta wait until
 F D 
We get the keys to the mansion on the hill
 A 
How long we gotta waste our time
 F D A 
Boardin' a bus that's bound for the welfare line



Finish how you like! Do another chorus or two!!

Blues Alabama (intro) – Dzem chords

-------------------------------------------------
---2------2-----5--------------------------------
---2--4-2-2--4^^^^^5--5po4-2---------------------
-----------------------------4-2-4---------------
-------------------------------------------------
-------------------------------------------------



Jezeli uwazasz, ze ten tab jest zly, nie musisz tego pisac 
w komentarzu, tylko poprostu z niego nie graj ! :) Pozdrawiam.