Tag: anne

Solbarn Jordbarn chords – Anne Vada

 Ingen capo

 C G Am C7 
Solbarn, jordbarn, bak din tynne hud. 
 F C Dm G 
stråler mot oss kjærlighet fra Gud. 

 C G/B Am C7 
Hør oss, se oss, Stjernebarn, stig ned, 
    F C Dm G C 
så jordens barn i alle land finner julens fred.

 C G Am C7 
Flyktning, krigsbarn, hjemløs og forlatt,
 F C Am G 
Misbrukt, skadet i den dype natt

 C G/B Am C7 
Hør oss, se oss, Stjernebarn, stig ned, 
    F C Dm G C 
så jordens barn i alle land finner julens fred.

 C G Am C7 
Glemt barn, skremt barn, med sitt såre sinn,
 F C Dm G 
Ingen merker tåren på dets kinn.

 C G/B Am C7 
Hør oss, se oss, Stjernebarn, stig ned, 
    F C Dm G C 
så jordens barn i alle land finner julens fred.
 C G Am C7 
Bortskjemt, ensomt barn som vil ha mer.
 F C Dm G 
Trosbarn, Guds barn, håper, venter, ber.

 C G/B Am C7 
Hør oss, se oss, Stjernebarn, stig ned, 
    F C Dm G C 
så jordens barn i alle land finner julens fred.

 C G Am C7 
Håpsbarn, fredsbarn, Barn av evighet,
 F C Dm G 
Vis hvert jordbarn himlens herlighet.

 C G/B Am C7 
Hør oss, se oss, Stjernebarn, stig ned, 
    F C Dm G C 
så jordens barn i alle land finner julens fred.

Well Meet Again chords – Anne Murray

 We’ll Meet Again:Anne Murray.
Album - I'll Be Seeing You - on
Straight Way Records in 2004.

INTRO:  C A D  G..(x2)

#1.
 C E7 A7 
We'll meet again don't know where don't 

know when.
     D7 G7 
But I know we'll meet again some sunny day.
 C E7 A7 
Keep smiling through just like you always do
          D7 G7              
Till the blue skies drive the dark clouds far 
  C F C 
away.

CHORUS:
 C C7 
So, will you please say hello to the folks 
                         F 
that I know..tell them, I won't be long. 
            D7 
They'll be happy to know, that as you saw me 
           G7 
go, I was singin' this song.

#2.
 C E7 A7 
We'll meet again don't know where don't 

know when.
     D7 G7 C A D G 
But I know we'll meet again some sunny day.


INTERLUDE:  C E7 A7 D7 Dm7  G..C  E7 A7 D7 Dm7 C 


CHORUS:
 C C7 
So, will you please say hello to the folks 
                         F 
that I know..tell them, I won't be long. 
            D7 
They'll be happy to know, that as you saw me 
           G7 
go, I was singin' this song.

#3.
 C E7 A7 
We'll meet again don't know where don't 

know when.
     D7 G7 C   
But I know we'll meet again some sunny day.

OUTRO:
 D7 G7 C A D G 
I know we'll meet again some sunny day.

..C A D G C..(Fade.)



A 2000 smash from Kraziekhat.

Anne solo Tabs – John Frusciante

 This is the solo of Anne (the 1st part) 
the only thing I did was put on the tab that video: 

 

the video does not belong to me. Please credit to Drew Carroll who made ​​the video and took the tablature .
If tablature contain an error, let us edit comments that will 

Standard tuning (eBGDAE)





e:--13b--10--13b----10--------------------------------------------------------------------|
B:----------------------13b~----13b---13--13--13--13p11----------------11---11--13--------|
G:-------------------------------------------------------12----10h12------12-------11b--7-|
D:----------------------------------------------------------------------------------------|
A:----------------------------------------------------------------------------------------|
E:----------------------------------------------------------------------------------------|



                                       (This part is repeated a few times)
                                           \                         /
e:----------------------15------------------\18--15-----18--15------/-------------------------------|
B:13/15--18b--15--18b---18b----18br--15------\------18---------18--/---18br-15---13b--15-15---15----|
G:------------------------------------------------------------------------------------------14---12-|
D:--------------------------------------------------------------------------------------------------|
A:--------------------------------------------------------------------------------------------------|
E:--------------------------------------------------------------------------------------------------|


************************************

| h   hammer-on
| p   pull-off
| ~   vibrato
| +   harmonic
| x   Mute note
| b   Bend
| pb  Pre-bend
| br  Bend release
| pbr Pre-bend release
| brb Bend release bend

************************************

Hard As Hello Tabs by Kimberly Anne

 Such a brilliant song and really quite simple to play!  done by ear and 
watching Kimberly play an acoustic version of the song so may not be 100% accurate! Have fun 
playing! (:

Capo - 3rd Fret
Tuning - Standard
(All relative to capo)

Intro

e|--------------|
B|--------------|
G|--------------|      x2
D|--5--5--5--5--|
A|--------------|
E|-3--3--3--3---|



Verse

e|--------------|--------------|--------------|--------------|
B|--------------|--------------|--------------|--------------|
G|--------------|--------------|--------------|--------------|
D|--5--5--5--5--|--5--5--5--5--|--5--5--5--5--|--5--5--5--5--|
A|--------------|--------------|--------------|--------------|
E|-3--3--3--3---|-3--3--3--3---|-0--0--0--0---|-0--0--0--0---|
                                                                        x2
e|--------------|--------------|--------------|--------------|
B|--------------|--------------|--------------|--------------|
G|--------------|--------------|--------------|--------------|
D|--5--5--5--5--|--5--5--5--5--|--5--5--5--5--|--5--5--5--5--|
A|--------------|--------------|--------------|--------------|
E|-2--2--2--2---|-2--2--2--2---|-3--3--3--3---|-3--3--3--3---|



Pre-Chorus

e|--------------|--------------|    |--------------|--------------|
B|--------------|--------------|    |--------------|--------------|
G|--------------|--------------|    |--------------|--------------|
D|-5--5--5--5---|-5--5--5--5---| x2 |-5--5--5--5---|-5--5--5--5---| x2
A|--------------|--------------|    |--------------|--------------|
E|-3--3--3--3---|-3--3--3--3---|    |-0--0--0--0---|-0--0--0--0---|
                                                                           x2
e|--------------|--------------|    |--------------|--------------|
B|--------------|--------------|    |--------------|--------------|
G|--------------|--------------|    |--------------|--------------|
D|-9--9--9--9---|-9--9--9--9---| x2 |-9--9--9--9---|-9--9--9--9---| x2
A|--------------|--------------|    |--------------|--------------|
E|-8--8--8--8---|-8--8--8--8---|    |-0--0--0--0---|-0--0--0--0---|




Chorus (listen to song for strum pattern)


  Feet don't fail me now, I'm feeling stronger than this
e|----------|
B|----------|
G|----------|
D|----5-----|
A|----5-----|
E|----3-----|

  I'm as hard as...
e|----------|
B|----------|
G|----------|                                 x2
D|----9-----|
A|----9-----|
E|----8-----|

  Hell...
e|----------|
B|----------|
G|----------|
D|----9-----|
A|----9-----|
E|----0-----|



Verse         x2



Pre-Chorus    x2



Chorus        x2




  Cos I'm over and done with it...
e|----------|
B|----------|
G|----------|
D|----5-----|
A|----5-----|
E|----3-----|

  The sadistic fun of it...
e|----------|
B|----------|
G|----------|
D|----5-----|
A|----5-----|
E|----0-----|



 Chorus    x1



Bridge

e|----------|----------|
B|----------|----------|
G|----------|----------|
D|----7-----|----9-----|
A|----7-----|----9-----|
E|----5-----|----0-----|



Chorus    x2




Lyrics (all worked out by ear so sorry if they're wrong!)


She's got a smile,
You forget in an instant,
Hold on a while,
Her words got no substance,
That I can tell,
What the hell

She'll tell you tales,
About when you went travelling,
To forget herself,
And you'll hang on every word,
No matter how self centred


When I'm watching the track journey (oh oh),
As you choose her over me (oh oh),
And it's that cinematic walk away scene,
Where I'll be fine (oh oh)

Cos I'm over and done with it (oh oh),
The sadistic fun of it (oh oh),
Just turn around and run for it (oh oh),
And soon I'll be fine


Oh feet don't fail me now,
I'm feeling stronger than this,      x2
I'm as hard as hell


She thinks she's got a clue,
A political mind but,
She'll hide from the news,
And b

Anne You Will Sing Tabs by Promise Ring

 -----------------------------------------------------------------------------
                           ANNE YOU WILL SING - The Promise Ring
-----------------------------------------------------------------------------
Well this is my favorite song by TPR so I thought I'd try to tab it out. 

Tuning: Standard


Beginning:
e|---------------------------|
B|-4------------4------------|
G|-----4-------------4-------|
D|---------------------------|
A|---------------------------|
E|---------------------------|

Intro/Verse:
e|------------------------------------------------------------------------|
B|------------------------------------------------------------------------|
G|-9-99-99-99-99-99-8-89-911-119-99-99-8-88-88-88-88-888-88-88-88-88-88---|
D|-9-99-99-99-99-99-9-99-9-9-9-9-99-99-x-xx-xx-xx-xx-xxx-xx-xx-xx-xx-xx---|
A|-7-77-77-77-77-77-6-66-6-6-6-6-66-66-6-66-66-66-66-666-66-66-66-66-66---|
E|-------------------------------------4-44-44-44-44-445-55-55-55-55-55---|
 |                                                                        |
e|------------------------------------------------------------------------|
B|------------------------------------------------------------------------|
G|-9-99-99-99-99-998-88-88-88-88-8813-1313-1313-1313-1313-1311111111111111|
D|-9-99-99-99-99-999-99-99-99-99-99x--x-x--x-x--x-x--x-x--x-x-xx-xx-xx-xx-|
A|-7-77-77-77-77-776-66-66-66-66-6611-1111-1111-1111-1111-119-99-99-99-99-|
E|------------------------------------------------------------------------|

Bridge:           x1                 x3
e|------------------|------------------|
B|------------------|------------------|
G|-888-9999-99-9999-|-888-9999-99-9999-|
D|-xxx-777x-xx-xxxx-|-xxx-777x-xx-xxxx-|
A|-666-0007-77-7777-|-666-0007-77-7777-|
E|--------0-00-0000-|--------0-00-0000-|
 |                                     |
e|------------------|------------------|
B|------------------|------------------|
G|------------------|-444-222----------|
D|--------2-22-2222-|-444-2222-22-2222-|
A|--------2-22-2222-|-222-0002-22-2222-|
E|--------0-00-0000-|--------0-00-0000-|

Interlude:
G|---------------------------------------------------------|
D|---------------------------------------------------------|BASS
A|---0-4----0-4----0-4----0-4----0-7----0-7----0-7----0-7--|
E|-0------0------0------0------0------0------0------0------|
 |                                                         |
e|--------------------------------------------------7------|
B|-----------------------------------------------9---------|GTR I
G|---------------------------------9-----------------------|
D|---------------------------------------------------------|
A|-----7---------------------------7-----------------------|
E|-0-0-0-----------------------0-0-------------------------|
 |                                                         |
e|---------------------------------------------------------|
B|---------------------------------------------------------|GTR II
G|---------------------------------------------------------|
D|---------------------------------------------------------|
A|-----4---------------------------7----------------7/9-9--|
E|-0-0-0-----------------------0-0-0----------------0---0--|


G|---------------------------------------------------------|
D|---------------------------------------------------------|BASS
A|---0-4----0-4----0-4----0-4----0-7----0-7----0-7----0-7--|
E|-0------0------0------0------0------0------0------0------|
 |                                                         |
e|-------------------7-------------------------------------|
B|-----9--------------------9------------------------------|GTR I
G|------------6--------------------6------6/4---4/6--------|
D|---------------------------------------------------------|
A|---------------------------------------------------------|
E|---------------------------------------------------------|
 |                 

Mary Anne chords – Marshall Crenshaw

 SONG:   MARY ANNE
ARTIST: MARSHALL CRENSHAW
  THIS IS EASY!
TAB BY: DON CZARSKI
 guitarzan7@hotmail.com  

                            
              MARY ANNE                         
          MARSHALL CRENSHAW 


INTRO:   C G F F G C C G F F G C 
   

VERSE: 
     C G F            
It isn't such a crime 
 F G C     
It isn't such a shame 
  C G F      
It happens all the time  
 F G C   
You shouldn't take the blame   
 C G F   
Go on and have a laugh  
 F G C   
Go have a laugh on me   
 C G F   
Go on and have a laugh 
 F G C   
At all your misery 


CHORUS:    
       F 
Mary Anne, Mary Anne 
                               Em G 
I really wanna tell you Mary Anne, Mary Anne

I'm thinking of you
       F 
Mary Anne, Mary Anne 
                               C G C 
I really wanna tell you Mary Anne, Mary Anne, Mary Anne


INSTRUMENTAL:
 C G F F G C C G F F G C 


VERSE:
 C G F  
You take a look around
 F G C  
And all you seem to see
 C G F  
Is bringing you down
 F G C  
As down as you can be
 C G F  
Go on and have a laugh
 F G C  
Go have a laugh on me
 C G F  
Go on and have a laugh
 F G C  
At how bad it can be

   
CHORUS:    
       F 
Mary Anne, Mary Anne 
                               Em G 
I really wanna tell you Mary Anne, Mary Anne

I'm thinking of you
       F 
Mary Anne, Mary Anne 
                               C G C 
I really wanna tell you Mary Anne, Mary Anne, Mary Anne


INSTRUMENTAL:
 C G F F G C C G F F G C C G F F G C C G F F G C 


CHORUS:    
       F 
Mary Anne, Mary Anne 
                               Em G 
I really wanna tell you Mary Anne, Mary Anne

I'm thinking of you
       F 
Mary Anne, Mary Anne 
                               C G C 
I really wanna tell you Mary Anne, Mary Anne, Mary Anne


INSTRUMENTAL:
 C G F F G C C G F F G C 


VERSE:
 C G F  
You take a look around
 F G C  
And all you seem to see
 C G F  
Is bringing you down
 F G C  
As down as you can be
 C G F  
Go on and have a laugh
 F G</spa

Ill Be There chords – Julie Anne San Jose V4

 "I'll Be There"

Verse 1:
   C F G 
First time I laid my eyes on someone like you
  C F G 
I can’t forget the hour, that moment with you
 C F 
Then I have realized
 G Em 
Love is growing deep inside
 Am Dm G 
I feel the beating of my heart

Chorus:
              C Em F G 
Cause every day, every night, I keep looking at the skies
      Em Am 
And I pray that someday 
         Dm E Am 
You will wake up in my arms and love will never end
 Dm Em 
We belong together
 F Em 
Always and forever
 Dm G C 
Call my name and Ill be there

Verse 2:
 C F G 
Spending my days and nights just thinking Of you
 C F 
How you make me wanna smile 
 F G 
With the things that you do
 C F 
When will I hear you say 
 G Em 
Love is coming on your way
 Am Am Dm 
And that you start to feel the same

Chorus:
              C Em F G 
Cause every day, every night, I keep looking at the skies
      Em Am 
And I pray that someday 
         Dm E Am 
You will wake up in my arms and love will never end
 Dm Em 
We belong together
 F Em 
Always and forever
 Dm G 
Call my name and Ill be...
               C Em F G 
Cause every day, every night, I keep looking at the skies
       Em Am Dm E 
And Ill pray that someday you will wake up in my arms
            C Em F G 
Coz every day, every night, I keep looking at the skies
      Em Am Dm E 
And Ill pray that someday you will wake up in my arms
                 Am 
And love will never end
 Dm Em F Em 
We belong together, always and forever
 Dm G C 
Call my name and Ill be there

The Parting Glass Assassins Creed Version chords – Anne Bonny

 I did my best to listen to the song and do it justice. 
Both verses have basically the same chords. 
To end it, just strum the chords of the last line once. 
Personally I strum each chord only ones in all lines.

 Enjoy!

Verse 1

    Bm G D A 
Of all the money that e'er I had

   Bm G D A      
I spent it in good company

     Bm G D A 
And all the harm that e'er I've done 

   Bm G D G Bm 
Alas it was to none but me
 
      D G D D G D 
And all I've done for want of wit 

   GMaj      Bm G A 
To mem'ry now I can't recall 

    Bm G D A 
So fill to me the parting glass

        Bm G D G Bm 
Good night and joy be with you all

Verse 2

Of all the comrades that e'er I had
They're sorry for my going away
And all the sweethearts that e'er I've loved
They'd wish me one more day to stay 
But since it falls unto my lot
That I should rise and you should not 
I'll gently rise and softly call
Good night and joy be with you all