Tag: august

Jingle Bells Tabs – August Burns Red

 -------------------------------------------------------------------------------
                             Jingle Bells - August Burns Red
-------------------------------------------------------------------------------
:Henry Orellana
horellana24

Tuning: Drop C

*, I've been wanting to play this song since it came out but no one made a tab for it
so I decided to learn this song by ear so this tab is not 100% correct, if you have any corrections let me know 
or feel free to make your own version. I wanted to post this with more than enough time for people to learn this
by Christmas, so enjoy! Sorry for not including the acoustic part in the beginning.

 Jingle Bells
e|---------------------------------------------------------------------------|
B|121212-121212-12-15--------------------------------------------------------|
G|--------------------12-14-16--12-171717-1717-1616-161616-1414-16-14-19-----|
D|---------------------------------------------------------------------------|
A|---------------------------------------------------------------------------|
E|---------------------------------------------------------------------------|

e|---------------------------------------------------------------------------|
B|121212-121212-12-15--------------------------------------------------------|
G|--------------------12-14-16--12-171717-1717-1616-1616-1919-17-14-12-------|
D|---------------------------------------------------------------------------|
A|---------------------------------------------------------------------------|
E|---------------------------------------------------------------------------|
 
 Dashing Through the Snow 
e|---------------------------------------------------------------------------|
B|---------------------------------------------------------------------------|
G|---------------------------------------------------------------------------|
D|--9-7-5-------9-7-5-2---10-9-7-4-1212-10-7-9-------------------------------|
A|5-------5-555---------7----------------------------------------------------|
E|---------------------------------------------------------------------------|

e|---------------------------------------------------------------------------|
B|---------------------------------------------------------------------------|
G|---------------------------------------------------------------------------|
D|--9-7-5-------9-7-5-2---10-9-7-121212-1212-14-12-10-7-5/12-----------------|
A|5-------5-555---------7----------------------------------------------------|
E|---------------------------------------------------------------------------|

 (During the second part of Dashing Through the Snow)
e|7p3---3h7p3---3h7p3---3h7p3---3-8p3---3h8p3---3h8p3---3h8p3---3------------|*You play the same pattern but 
B|----3-------3-------3-------3-------5-------5-------5-------5--------------|with different shapes.
G|---------------------------------------------------------------------------|
D|---------------------------------------------------------------------------|
A|---------------------------------------------------------------------------|
E|---------------------------------------------------------------------------|

e|10p5---5h10p5---5h10p5---5h10p5---5-15p10----10h15p10----10h15p10----10h15p10---|After this you go back to the
B|-----7--------7--------7--------7---------12----------12----------12----------12|Jingle Bells intro.
G|--------------------------------------------------------------------------------|
D|--------------------------------------------------------------------------------|
A|--------------------------------------------------------------------------------|
E|--------------------------------------------------------------------------------|

 Dashing Through the Snow(solo)
e|--------------------------------------------------------10-----------------| ? I'm not sure if that's where
B|--12-10-8--------5h8-8-8h10p8-10b12-10-8h10p8-----8-5---------

Restore chords – Chris August V2

 G C G C 
Nobody's growing old together, we've made it easy just to quit
 G C G C 
Love has become a negative percentage, why do we bother to commit
 G C G C 
We've got a long list of excuses, ways we try to justify
 G C G C 
Well, I propose to you the truth is, marriage does not have to die

 G C Dm D C 
I know you're feeling like it's falling apart and it can't go on anymore
     G C D#m D C 
But God is a God who knows how to heal so just give it up to the Lord
                    G C 
And He will restore

 G C G C 
He said with this ring I promise, and with I do she said forever
 G C G C  
But right now if they're being honest they don't know if they'll stay together
 G C G C 
Let's fast forward to the future after struggling on their own
 G C 
They finally figured out they needed Jesus in the middle
 G C 
Now I'm watching God rebuild their home

 G C Dm D C 
I know you're feeling like it's falling apart and it can't go on anymore
     G C D#m D C 
But God is a God who knows how to heal so just give it up to the Lord
                    G     
And He will restore

     D#m D 
The enemy tries to come and divide
 C 
Trying to get us to give up the fight
     D#m D 
But darkness will always lose out to light
        C G C G C 
'Cause we've got the power of Christ on our side

 G C 
I see you growing old together
 G C 
I pray I find a love like yours

 G C Dm D C 
So if you're feeling like it's falling apart and it can't go on anymore
 G C D#m D C 
God is a God who knows how to heal so just give it up to the Lord
                    G C 
And He will restore
                    G C 
Like it was before
                                G C 
You may have strayed off course
                    G C 
But He will restore




I love this song. I cried when I heard it. such an encouragement.

Dance Of The Sugar Plum Fairy Tabs by August Burns Red

 Title: Dance of the Sugar Plum Fairy
Artist: August Burns Red
 Sleddin' Hill
Tempo = 100

SubTitle:  Daniel Yates

There may be a few little bits where the rhythm is slightly off but I'd say that the 
notes are pretty much 99% correct! Enjoy!

And check out my youtube channel!

http://www.youtube.com/user/TheDanielYates

JB Lead


Legend
L - tied note
x - dead note
h - hammer on/pull off
b - bend
s - slide
~ - vibrato
g - ghost note
> - accentuated note
t - trill
M - palm mute
. - staccato
P - popping (bass)
S - slapping (bass)
+ - tapping
W - wide vibrato

Carol Of The Bells Tabs by August Burns Red V6

 This wasn't too hard to pick out but it is fast at times. Hope you enjoy.

1------------------------------------------------------------------|
2------------------------------------------------------------------|
3------------------------------------------------------------------|
4------------------------------------------------------------------|
5--6-5h6-----------------------------------------------------------|
6--------8---------------------------------------------------------|

the second guitar comes in with this

1------------------------------------------------------------------|
2------------------------------------------------------------------|
3------------------------------------------------------------------|
4--5---5-----------------------------------------------------------|
5----8---6---------------------------------------------------------|
6------------------------------------------------------------------|

rhythm for these first two parts is....

C         A#         G#        G


1------------------------------------------------------------------|
2------------------------------------------------------------------|
3--8--7h8--5-------------------------------------------------------|
4------------------------------------------------------------------|
5------------------------------------------------------------------|
6------------------------------------------------------------------|

this is played a little faster

1------------------------------------------------------------------|
2------------------------------------------------------------------|
3--55--------------------------------------------------------------|
4----8-6-55------------555-----------------------------------------|
5----------8-6-55-6-8----------------------------------------------|
6------------------------------------------------------------------|


1------------------------------------------------------------------|
2------------------------------------------------------------------|
3------------------------------------------------------------------|
4----------5h6-5---------------------------------------------------|
5--55-66-88-----8--------------------------------------------------|
6------------------------------------------------------------------|

That's the whole song except for the heavy distortion part... That can't be played 
unless in drop C.

August Town chords – Duane Stephenson V3

 Repeat:  B | F# | E .

Na Na Na Naaa Na Na Woah oh Woahh
Na Na Na Naaa Na Na

A word from the wise 
don't try to make life on your own
remember that jah jah's by your side 

for i was a soul who lost 
and my life was in dismay
for amongst evil forces in which i played 

guns and ammunition 
were my chosen way of life
with God fearin people i choose to strife

for all of the lives that are taken 
they can never be replaced
but still jah jah chose to remember my face

though i never lived like he wanted 
i'm still mindful of what he taught me
so now i beg and plea 
i'm on my bended knees
God father u rescue me
and i've got the scars to show 
i barely made it along life's road 
cause when my life got dark he was the only spark
he was the light at the end of the road...

when i was young boy 
growin up in august town 
we ate from the same pot 
we were idlings all around

from corner to colour and corner
from rockers to jungle kentyre
rising to dreadhieghts and river all around 

and then the footbal ground became my battlefield
and my life seems so surreal
people were fallin all around
but jah helped me to stand my ground
Only Jah, Only Jah 
Coud've Helped me to stand my ground

though i never lived like he wanted 
i'm still mindful of what he taught me
so now i beg and plea 
i'm on my bended knees
God father u rescue me
and i've got the scars to show 
i barely made it along life's road 
cause when my life got dark he was the only spark
he was the light at the end of the road...

never lived to please him, 
i never lived like i should
oh father you rescue me, 
oh yeah, oh yeah

I've lived and I've learnt, 
i've made mistakes along the way
now i beg for forgiveness, 
each day as i try to pray

So take it from me son 
you can change the world today
and i'm livin proof 
livin proof that crime doesn't pay

though i never lived like he wanted 
i'm still mindful of what he taught me
so now i beg and plea 
i'm on my bended knees
God father u rescue me
and i've got the scars to show 
i barely made it along life's road 
cause when my life got dark he was the only spark
he was the light at the end of the road... (repeat)

I never lived (No, I never lived)
Never lived the way he wanted me too
I never lived (Lord, I tell you)

You And I chords – Chris August

 "You And I"
By: Chris August
: James Bandayrel
11/19/13

Searched the net for a tab of this song and found none, so, i decided to make one.
(its too late but) Hope you enjoy playing this song =)

**Shout out to the ff: Leoneza, Herald, Ryan, Joshua, Bryan John, Jerico

Tuning: Standard

Chords used:
 B F# E G#m C#m C#9 
                                        
0       0       0       0       0       4
0       0       0       0       5       4
4       3       1       4       6       6
4       4       2       6       6       6
2       4       2       6       4       4
0       2       0       x       x       4


Intro: (1) B - F# - E - F#  or (2) B - C#m - C#9 - G#m - F#  (just listen for the change from  C#m  to  C#9 )

Verse:

 B 
Put your smile on

 F# E 
Today is gonna save us

 B 
Let the bridge down

 F# E 
The sun is gonna wake us

 G#m 
'Cause somebody's been

 F# 
Messing around with me

 E 
And I don't know

          G#m F# 
But I'm, I'm thinking maybe


Chorus:

         B F# 
We can run into summer, the hotter weather's

 E 
Always cool when we're together

                             G#m F# 
The sun is brighter when it shines from the sky

         E G#m F# E 
Down to you and I, down to you and I

                         G#m F#   Intro
It's brighter when it's you and I
You and I

Verse:

Let the music play
It's time to start the dancing
Sound the new day
'Cause it's time to take some chances

When somebody's been
Messing around with you
Grab your shoes
'Cause I was thinking maybe

We can run into summer, the hotter weather's
Always cool when we're together
The sun is brighter when it shines from the sky
Down to you and I, down to you and I
It's brighter when it's you and I

 G#m F# 
On the road, just living life

      E F# 
With dreams as big as the Texas sky

 G#m F# 
Like a summer breeze in warm July

         G#m F# E 
There's you and I

Somebody's been
Messing around with us
I don't know
But I'm thinking maybe

We can run into summer, the hotter weather's
Always cool when we're together
The sun is brighter when it shines from the sky
Down to you and I, down to you and I
It's brighter when it's you and I
You and I, you and I