Tag: avenged

A Little Peace Of Heaven Acoustic chords – Avenged Sevenfold

 Avenged Sevenfold – A Little Piece Of Heaven (Acoustic)

Intro (sing the intro melody while playing these chords):  D5 ,  C#5 ,  Bb5 ,  A5 ,  E5  2x

Enter Drums:  Dm ,  Fm  2x

 Dm C#5 
Before the story begins, is it such a sin,
 Fm G#m 
For me to take what's mine, until the end of time?
 Dm C#5 
We were more than friends, before the story ends,
 Fm G#m 
And I will take what's mine, create what

God would never design

 Dm A 
Our love had been so strong for far too long,
 G#m 
I was weak with fear that
 Dm  [followed by A small breakdown of  G#5 ,  G5 ,  F5 ]
Something would go wrong,
 Dm A 
Before the possibilities came true,
 G#m Dm  [followed by A small breakdown of  G#5 , F5 ]
I took all possibility from you

 Dm F Fm G#m 
Almost laughed myself to tears, (CRAZY LAUGHTER)
 Dm F Fm Dm 
Conjuring her deepest fears (COME HERE YA’ FUCKIN’ BITCH!!!)

 Dm C#5            ( F5  slide to  G#5    3x)
Must have stabbed her fifty fucking times,

I can't believe it,
 Dm C#5                  ( F5  slide to  G#5    3x)
Ripped her heart out right before her eyes,
                    (guitar silent for eat it eat it eat it)
Eyes over easy, eat it, eat it, eat it

 Dm 
She was never this good in bed

Even when she was sleepin'

 A 
Now she's just so perfect I've

Never been quite so fucking deep in

One Bar of  Dm ,  Bb  before singing continues

         Dm Bb 
It goes on, and on, and on,
                   Dm Bb 
I can keep you lookin' young and preserved forever,
         Dm Bb 
With a fountain to spray on your youth whenever

(the string walk down section which I simplified is now over)

              Gm C 
'Cause I really always knew that my little crime
           F Dm 
Would be cold that's why I got a heater for your thighs
          Bb C F 
And I know, I know it's not your time
       Dm 
But bye, bye
         Bb C 
And a word to the wise when the fire dies
                 A Dm ,  C ,  Bb 
You think it's over but it's just begun
                   C 
But baby don't cry

                  Bb C 
You had my heart, at least for the most part
           F C Dm C Bb 
'Cause everybody's gotta die sometime, we fell apart
               C 
Let's make a new start
           F C Dm C Bb 
'Cause everybody's gotta die sometime yea-yeah
                   C 
But baby don't cry-ay-ay-ay-ay

             Dm A 
The possibilities I'd never considered
 G#m Dm A      
Are occurring the likes of which I'd never heard
       Dm A 
Now an angry soul comes back from beyond the grave
       G#m Dm A 
To repossess a body with which I'd misbehaved
 Dm F Fm G#m 
Smiling right from ear to ear
 Dm F Fm Dm 
Almost laughed herself to tears
 Dm C#5</

Danger Line chords – Avenged Sevenfold

 intro:  Dm ........
 Dm E G D# Dm E Gm D# Dm 
My sixteen, locked and loaded

All fear has been avoided
 G 
You say the words and my weapon is drawn
 Dm 
This one could be my last time

Some people call it war crime
 Gm A 
I may be staring down a lethal sight

(To die)
 Dm Gm 
Nothing shocks you like a bullet hole
                        Dm 
Leaving my fear on the danger line
                        Gm 
Suffering a man should never know
                         Dm 
Leaving my faith on the danger line

(  Dm E Gm D#  )

 Dm 
I do this for my family

My daughter loves her daddy
 G 
Too many talk down on things they don't know
 Dm 
With colors never faded(1stchords.com)

Reckless and unabated
 Gm A 
They may take me but never take us all

(I'll crawl)
 Dm Gm 
Nothing shocks you like a bullet hole
                        Dm 
Leaving my fear on the danger line
                        Gm 
Suffering a man should never know
                         Dm 
Leaving my faith on the danger line

 A# 
I know what you're thinking
      ?                  
I've been there before
 A# F C Dm 
So think of the times, the time we spent laughing away
 A# F A 
So think of the times at home
 
(Life without a care)
 
 A# F 
Now I find myself in my own blood
(Never thought I'd lay in my own blood)

      C Dm 
The damage done is far beyond repair
  A# F 
I never put my faith in up above
(Never had much faith in up above)

     A 
But now, I'm hoping someone's there


 A# F 
I never meant to leave this world alone
   C Dm 
I never meant to (1stchords.com)hurt the ones who cared
      A# F 
And all this time I thought we'd just grow old
      A 
You know, no one said it's fair

 A# F 
Tell my baby girl that "It's alright"
               C Dm 
I've sung my last song today
             A# F A 
Remind the lord to leave his light on for me
      A# 
I'm free

 A# F C Dm A# F A  (4x)

Acid Rain Tabs by Avenged Sevenfold V2

 Band - Avenged Sevenfold

Album - Hail to the King 

Song - Acid Rain

Tuning - Standard

  Guitar 1 (Riff A) (Clean) Starts at 0:36 BPM:61 (Play Slowly)
E|----------1------------------1-----------------1------------------------|
B|-------3-----3------------3-----3-----------3-----3-----------3-------3-|
G|----2-----------2------2-----------2-----2-----------2-----2-------2----|
D|-0----------------------------------------------------------------------|
A|--------------------3-----------------1-----------------0--------1------|
E|------------------------------------------------------------------------|

  Guitar 1 (Riff A Continued)
E|------------------------------------------------------------------------|
B|----------3-----3-----3-----3-----3-----------3-----3-----------2-----2-|
G|-------3-----3-----------3-----3-----------2-----2-----------2-----2----|
D|----------------------------------------2-----------------2-------------|
A|----5--------------------------------0-----------------0----------------|
E|-3-----------------1----------------------------------------------------|


  Guitar 1 (Distortion W/ Ambient Delay)  (Guitar 2 Plays Riff A)
E|------------------------------------------------------------------------|
B|-8fbr-(8)fbr---6--8--x--8fbr-(8)p6---8----------------------------------|
G|---------------------------------------7~~~~~~----7fbr-(7)fbr----(7)\---|
D|------------------------------------------------------------------------|
A|------------------------------------------------------------------------|
E|------------------------------------------------------------------------|


   Guitar 1
E|------------------------------------------------------------------------|
B|-8fbr----(8)p6---8fbr---(8)p6/5----------(5)\-----5--6--5---------------|
G|------------------------------------------------------------------------|
D|------------------------------------------------------------------------|
A|------------------------------------------------------------------------|
E|------------------------------------------------------------------------|


  Guitar 1 Verse
E|------------------------------------------------------------------------|
B|--6fb-~~~~~~~~~~~~~~~~~~~~~~~~~~~~~~~~~~~~~~----------------------------|
G|------------------------------------------------------------------------|
D|------------------------------------------------------------------------|
A|------------------------------------------------------------------------|
E|------------------------------------------------------------------------|
 |
 | Guitar 2 Verse (Riff B)
E|-------------------------------------------------------------------------|
B|----------3-----3-------------3-----3------------1-----1-----------1---1-|
G|-------3-----3-------------3-----3------------0-----0-----------0----0---|
D|----0-------------------0------------------2-----------------2-----------|
A|----------------------------------------3-----------------3--------------|
E|-3-------------------3---------------------------------------------------|


(((RIFF B))) x3



   PRE-CHORUS  Guitar 1&2 (Riff C) (Slight Distortion)
E|------------------------------------------------------------------------|
B|------------------------------------------------------------------------|
G|-----2--3-2--------2--3-2h3p2--------2-3-2--------2-3-2-----------------|
D|---2--------2----2------------2----2-------2----2-------2---------------|
A|-0-------------0-----------------0------------0-------------------------|
E|------------------------------------------------------------------------|

(((CHORUS -- GUITAR 1&2 W/ RIFF A)))


(((VERSE -- GUITAR 2 W/ RIFF B x4)))


(((PRE-CHORUS -- GUITAR 1&2 -- RIFF C)))


(((CHORUS -- GUITAR 1&2 W/ RIFF A x2)))


   Interlude Guitar 1&2
E|------------------------------------------------------------------------|
B|-------------------------------------------3------

Planets Tabs by Avenged Sevenfold V4

 Band - Avenged Sevenfold 

Album - Hail to the King

Song - Planets 

Tuning - D-A-D-G-B-E (Drop D)


   Pre-Intro Guitar 1 Only
E|----------------------------------------------------------------|
B|----------------------------------------------------------------|
G|----------------------------------------------------------------|
D|----------------------------------------------------------------|
A|-0--------------1------------4------1-----0---------------------|
D|-0--------------1------------4------1-----0---------------------|
  *Vol. Swell


   Intro Guitar 1 (x12)  (((GUITAR 2 DOES PRE-INTRO)))
E|----------------------------------------------------------------|
B|----------------------------------------------------------------|
G|----------------------------------------------------------------|
D|----------------------------------------------------------------|
A|--3h5h6--3h5h6--3h5h6--3h5h6--3h5h6~~~~~~~----------------------|
D|-0------0------0------0------0----------------------------------|
PM .      .      .      .      .
 |
 | Intro Guitar 2 (Starts after x8 of Guitar 1)
E|----------------------------------------------------------------|
B|----------------------------------------------------------------|
G|----------------------------------------------------------------|
D|----------------------------------------------------------------|
A|-----0-----0-----0-----0-----0-------1-----1-----1-----1-----1--|
D|-0-0-0-0-0-0-0-0-0-0-0-0-0-0-0---1-1-1-1-1-1-1-1-1-1-1-1-1-1-1--|
PM . .   . .   . .   . .   . .     . .   . .   . .   . .   . . 

  Intro Guitar 2 (Continued)
E|----------------------------------------------------------------|
B|----------------------------------------------------------------|
G|----------------------------------------------------------------|
D|----------------------------------------------------------------|
A|-----4-----4-----4-----4---1---0---------------------1----------|
D|-4-4-4-4-4-4-4-4-4-4-4-4-4-1---0---------------------1----------|



  Verse Guitar 1&2   (x2)
E|----------------------------------------------------------------|
B|----------------------------------------------------------------|
G|----------------------------------------------------------------|
D|----------------------------------------------------------------|
A|-0----------0---0----------0---0----4-------4-1----------3h5h6--|
D|-0----0-0-0-0-0-0----0-0-0-0-0-0----4-4-4-4-4-1----1-1-1--------|
PM      . . .   .      . . .   .        . . .        . . .


   Pre-Chorus  Guitar 1&2
E|----------------------------------------------------------------|
B|----------------------------------------------------------------|
G|----------------------------------------------------------------|
D|----------------------------------------------------------------|
A|-2--------2---2---------1----5----2--------2---2--------1----5--|
D|-2--2-2-2-2-2-2-----2-2-1----5----2--2-2-2-2-2-2---2-2--1----5--|
PM    . . .   .       . .              . . .   .     . . 

  Pre-Chorus Guitar 1&2 (Continued)
E|----------------------------------------------------------------|
B|----------------------------------------------------------------|
G|----------------------------------------------------------------|
D|----------------------------------------------------------------|
A|-4---------4---4---------3---7---4--------4-----3---7---4-------|
D|-4---4-4-4-4-4-4-----4-4-3---7---4--4-4-4-4-4-4-3---7---4-------|
PM     . . .   .       . .            . . .   . .


  Chorus Guitar 1
   Mother of all,                  your time is coming.
E|----------------------------------------------------------------|
B|----------------------------------------------------------------|
G|-7-----------10-------10/14-----11--------11/14-----------14\---|
D|-x------------x--------x--x------x---------x--x------------x----|
A|-5------------8--------8/12------9---------9/12-----------12\---|

Requiem Tabs by Avenged Sevenfold V2

 Band - Avenged Sevenfold

Album - Hail to the King

Song - Requiem

Tuning - Db-Ab-Db-Gb-Bb-Eb or C#-G#-C#-F#-A#-D#


Intro Guitar 1 (x4)          First&Third      Second&Fourth
Eb|--------------------------|---------------|---------------------|
Bb|--------------------------|---------------|---------------------|
Gb|----9---9-10----9---9-10--|-121212121212--|--151515151515-------|
Db|----x---x-x-----x---x-x---|--x-x-x-x-x-x--|---x-x-x-x-x-x-------|
Ab|-0--7p0-7-8---0-7p0-7-8---|-101010101010--|--131313131313-------|
Db|-0------------0-----------|---------------|---------------------|
  |
  |Intro Guitar 2  (x4)       First&Third      Second&Fourth
Eb|--------------------------|---------------|----------------------|
Bb|--------------------------|---------------|----------------------|
Gb|----9---9-10-----9---9-10-|---------------|----------------------|
Db|----x---x-x------x---x-x--|-8-8-8-8-8-8---|--111111111111--------|
Ab|-0--7p0-7-8----0-7p0-7-8--|-101010101010--|--131313131313--------|
Db|-0-------------0----------|---------------|----------------------|



   Verse Guitar 1 (Part 1)
Eb|------10---12---10------10---12---10------10---12---10----------|
Bb|-10-----------------------------------10------------------------|
Gb|--------------------12------------------------------------------|
Db|----------------------------------------------------------------|
Ab|----------------------------------------------------------------|
Db|----------------------------------------------------------------|
  |
  | Verse Guitar 2 (Part 1)
Eb|----------------------------------------------------------------|
Bb|----------------------------------------------------------------|
Gb|----------------------------------------------------------------|
Db|----------------------------------------------------------------|
Ab|-0-------0--0--0--0-----0--0--0--0-----0--0--0--0-----8--8--8---|
Db|-0-------0--0--0--0-----0--0--0--0-----0--0--0--0-----8--8--8---|
PM          .  .  .        .  .  .        .  .  .        .  .  .



    Verse Guitar 1 (Part 2)
Eb|----10---12---10------10---12---10-----10---12---10-----10----10|
Bb|-11---------------10----------------------------------9---------|
Gb|-----------------------------------12-----------------------10--|
Db|----------------------------------------------------------------|
Ab|----------------------------------------------------------------|
Db|----------------------------------------------------------------|
  |
  |  Verse Guitar 2 (Part 2)
Eb|----------------------------------------------------------------|
Bb|----------------------------------------------------------------|
Gb|----------------------------------------------------------------|
Db|-------------------------------------------------6----(6)\------|
Ab|-0-------0-0-0-0----0-0-0-0----0-0-0-0----0-0-0--6----(6)\-5555-|
Db|-0-------0-0-0-0----0-0-0-0----0-0-0-0----0-0-0--6----(6)\-3333-|
PM          . . .      . . .      . . . 

(((REPEAT VERSE PARTS 1 AND 2)))

   Chorus Guitar 1   (Only 1 guitar for chorus)

Eb|----------------------------------------------------------------|
Bb|----------------------------------------------------------------|
Gb|----------------------------------------------------------------|
Db|----------------------------------------------------------------|
Ab|-7---6-5--6-7--6-8---7-7--0-0-----4-4--0-0----------------------|
Db|-7---6-5--6-7--6-8---7-7--0-0-----2-2--0-0----------------------|



   Chorus Continued Guitar 1

Eb|----------------------------------------------------------------|
Bb|----------------------------------------------------------------|
Gb|----------------------------------------------------------------|
Db|----------------------------------------------------------------|
Ab|-7---6-5--6-7--6-8------------7---------------------------------|
Db|-7---6-5--6-7--6-8------------7---------------------------------|

Hail To The King chords – Avenged Sevenfold V2

 since the other chords versions don't sound quite right I
 decided to make a power chord only version, which is 
exactly as it was recorded, so crank up the distortion 
and dig in :D

Note: ( C#5 ) is one whole octave above C#5, i used the 
brackets to differentiate between the two.

Let me know if there's any mistakes, it's very easy to get
chords mixed up when there's so many. The strumming pattern
is easy enough to work out from the song (but would take 
forever to tab)



Use these chords (in drop c#)
    C#5 D#5 F5 F#5 G#5 A#5 B5  (  C#5  )
Eb|-----------------------------------|
Bb|-----------------------------------|
Gb|-----------------------------------|
Db|-----------------------------------|
Ab|-0---2---4---5---7---9---10---12---|
Db|-0---2---4---5---7---9---10---12---|


intro:

  D#5 F5 F#5           (X2)
 
  D#5 F5 F#5  xx       (X2)

  D#5 F5 F#5  xx xx xx (X3)

  D#5 F5 F#5 F#5 C#5   (X1)

  F#5 F5 C#5           (X1)

  D#5 D#5 D#5 F#5 C#5  (X3)

  C#5 C#5 F#5 F5 C#5   (X1)

  D#5 D#5 D#5 F#5 C#5  (X3)

  C#5 C#5 F#5 F5 C#5   (X1)


 D#5    x   x   x   x   x   x   x   x   x   x       F#5 C#5  
Watch your tongue or have it cut from your head

 D#5    x   x   x   x   x   x   x   x   x   x       F#5 F5 C#5    
Save your life by keeping whispers unsaid

 D#5    x   x   x   x   x   x   x   x   x   x       F#5 C#5  
Children roam the streets now orphans of war

 D#5    x   x   x   x   x   x   x   x   x   x       F#5 F5 C#5  
Bodies hanging in the streets to adore



 G#5 B5 G#5 B5 F5 G#5 
Royal fames will carve a path in chaos,

 G#5 B5 G#5 B5 F5  
Bringing daylight to the night

 A#5             (  C#5  )    A#5        (  C#5  )  G#5 
Death is riding into town with armor,

 A#5             (  C#5  )          A#5 
They've come to take all your rights

              D#5 C#5 D#5 C#5 
Hail to the king

              D#5 C#5 D#5 C#5 
Hail to the one

              D#5 C#5 D#5 C#5 
Kneel to the crown

              D5 E5  
Stand in the sun

 F#5 F5 C#5 D#5 F5 F#5  
Hail to the king




D#5   x   x   x   x   x   x   x   x   x   x      F#5 C#5
Blood is spilt while holding keys to the throne

D#5   x   x   x   x   x   x   x   x   x   x      F#5 F5 C#5   
Born again but it's too late to atone

D#5   x   x   x   x   x   x   x   x   x   x      F#5 C#5
No mercy - from the edge of the blade

D#5   x   x   x   x   x   x   x   x   x   x      F#5 F5 C#5   
Dare escape and learn the price to be paid


 G#5 B5 G#5 B5 F5 G#5 
Let the water flow with shades of red now

 G#5 B5</sp

Doing Time Tabs by Avenged Sevenfold

 Band-Avenged Sevenfold
Song-Doing Time
Album-Hail To The King
Tuning-Drop D

I learned 99% of this by ear. But it sounds spot on to me.

(intro)
e|-0-------0-------0--------0--------0--------0-----------------|
b|-5-(x3)--7-(x3)--8-(x3)--10-(x3)--12-(x2)--15-(x2)------------|
g|--------------------------------------------------------------|   (x2)
d|--------------------------------------------------------------|
a|--------------------------------------------------------------|
D|--------------------------------------------------------------|
(Part A)
e|--------------------------------------------------------------|
b|--------------------------------------------------------------|
g|--------------------------------------------------------------|
d|-2~~~~~~--0~~~~~~--7~~~~~~-----2~~~---------------------------|
a|-2~~~~~~--0~~~~~~--7~~~~~~-----2~~~---------------------------|
D|-2~~~~~~--0~~~~~~--7~~~~~~--5--2~~~---------------------------|

(Part B)
e|--------------------------------------------------------------|
b|--------------------------------------------------------------|
g|--------------------------------------------------------------|
d|--------------------------------------------------------------|
a|-2-------------------0--------------------7-------------------|
D|-2--222222222222222--0--0000000000000000--7--777777777777777--|
   pm ...............     ................     .........
(slowly start releasing palm mutes on 7's)

(Part B Continued)
e|--------------------------------------------------------------|
b|--------------------------------------------------------------|
g|--------------------------------------------------------------|
d|-9-9-9--8-8-8--7-7-7--5-5-5---2-5-2-0-------------------------|
a|-9-9-9--8-8-8--7-7-7--5-5-5---2-5-2-0-------------------------|
D|-9-9-9--8-8-8--7-7-7--5-5-5---2-5-2-0-------------------------|

(partC)
e|--------------------------------------------------------------|
b|--------------------------------------------------------------|
g|--------------------------------------------------------------|
d|-2~-5-2-5-2-0-2--------8-8-8-7-5-7-0-2------------------------|
a|-2~-5-2-5-2-0-2--(x3)--8-8-8-7-5-7-0-2------------------------|
D|-2~-5-2-5-2-0-2--------8-8-8-7-5-7-0-2------------------------|
                       (play this after every first part of Part C)
(Part D)
e|Only|---------------------------------------------------------|
b|1st |---------------------------------------------------------|
g|Time|---------------------------------------------------------|
d|-2~-|-----------2-1-0-2~~-------------------------------------|(x3)
a|-2~-|-----------2-1-0-2~~-------------------------------------|
D|-2~-|2222222222-----------------------------------------------|
   pm  ..........
(Part D Continued)(Listen to song for strumming pattern)
e|--------------------------------------------------------------|
b|--------------------------------------------------------------|
g|--------------------------------------------------------------|
d|------------2-1-0---4---5-------------------------------------|
a|------------2-1-0---4---5-------------------------------------|
D|-2222222222---------4---5-------------------------------------|
pm ..........
(Part E)                       (Listen to song for strumming patern)
e|--------------------------------------------------------------|
b|--------------------------------------------------------------|
g|--------------------------------------------------------------|
d|-444-222-444-777-44-22---5---7--------------------------------|
a|-222-000-222-555-22-00---5---7--------------------------------|
D|-------------------------5---7--------------------------------|

(Part E Continued)
e|--------------------------------------------------------------|
b|--------------------------------------------------------------|
g|----------------------------------------------------4~~-

Beast And The Harlot Live Tabs by Avenged Sevenfold

 Artist: Avenged Sevenfold
 City of Evil (2005)
Song Title: Beast and the Harlot Live
No.Track: #1

++++++++++++++++++++++++++

* This is Beast and the Harlot live whole song which Synyster Gates play
 at the stage, there are still missing part on this tab, I update it soon
  Hope you like it, No bad comment please and rate it :D

Guitar Tuning: Drop D (D A D G B e) 


Legend

b  - bend
h  - Hammer on
p  - Pull off
/  - Slide down
\  - Slide up
~  - Vibrato
  - Harmmonics
*  - Palm Mute
PM - Palm Mute
[] - Perfect Sound or perfect bend 

++++++++++++++++++++++++++

INTRO A

|-------------------|-----------------|-----------------|-------------|
|-/7~-7-6-7-9-10--5-|-6~~-6-5-6-8~-/6-|-6~~-6-5-6-8~-/6-|-6~-6-5-6-8~-|
|-------------------|-----------------|-----------------|-------------|
|-------------------|-----------------|-----------------|-------------|
|-------------------|-----------------|-----------------|-------------|
|-------------------|-----------------|-----------------|-------------|

|--------------------|-----------------------|-/11b[12]~-(11)-|
|-/9~~~-/9~~~-/11~~~-|-9-11-/13~-/14~~-/14~~-|----------------|
|--------------------|-----------------------|----------------|
|--------------------|-----------------------|----------------|
|--------------------|-----------------------|----------------|
|--------------------|-----------------------|----------------|

INTRO B

|--------------------------|--------------------------|
|--------------------------|--------------------------|
|--------------------------|-----10----12----13----12-| x3
|----(0)~~-----------------|-0000--0000--0000--0000---|
|----(0)~~-----------------|--------------------------|
|----(0)~~-----------------|--------------------------|
                             ****  ****  ****  ****                            
                            
|-----------10-/13-10---13-|--10~--|
|---------10---------13----|-------|
|-12-10-13-----------------|-------|
|--------------------------|-------|
|--------------------------|-------|
|--------------------------|-------|


++++++++++++++++++++++++++

PRE-VERSE

|----------------------------------------------------------|\ 
|----------------------------------------------------------| \ 
|----------------------------------------------------------|  \
|--------------------------------------------------------5-|   \ 
|--0-0-0-0-3--0-0-0-0-5--0-0-0-0-6--0-0-0-0-5--0-0-0-0-3-5-|    \ 
|--0-0-0-0-3--0-0-0-0-5--0-0-0-0-6--0-0-0-0-5--0-0-0-0-3-5-|     \
PM * * * *    * * * *    * * * *    * * * *    * * * *            \
                                                                  (2x)
|------------------------------|                                  /
|------------------------------|                                 /
|------------------------------|                                /
|----------------------------6-|                               /
|--0-0-0-0-3--0-0-0-0-5--0-0-6-|                              /
|--0-0-0-0-3--0-0-0-0-5--0-0-6-| ____________________________/       
PM * * * *    * * * *

++++++++++++++++++++++++++

VERSE

|----------------------------------------------------------|\ 
|----------------------------------------------------------| \ 
|----------------------------------------------------------|  \
|--------------------------------------------------------5-|   \ 
|--0-0-0-0-3--0-0-0-0-5--0-0-0-0-6--0-0-0-0-5--0-0-0-0-3-5-|    \ 
|--0-0-0-0-3--0-0-0-0-5--0-0-0-0-6--0-0-0-0-5--0-0-0-0-3-5-|     \
PM * * * *    * * * *    * * * *    * * * *    * * * *            \
                                                                  (2x)
|------------------------------|                                  /
|------------------------------|                                 /
|------------------------------|                                /
|----------------------------6-|                   

Tension chords – Avenged Sevenfold

 Tension by Avenged Sevenfold
Chords by @Syahrizal_SF


Intro :  Dm Bb  4x


Verse 1 :

           Dm
I wake up every morning bright and early
           Bb
Roll out of bed but I'm never quite alone
           Dm
Tension is pulling me in all directions
           Bb
And these problems use me as a rope

           Dm
Sometimes the pressure will just drive you crazy
           Bb
At any time I could explode
           Dm
I need some peace of mind, it's got me tired
           Bb
Don't wanna lose it, but I'm turning down that road

Chorus :

 Dm F C Gm
I need a moment 'cause I've spread myself too thin
 Bb F A
We all need a moment in our life
 Dm F
Work's hard, the day's too long
     C Gm
And that's just where it begins
 Bb F A
Tension has had us all this time

Verse 2 :

           Dm
I sit in traffic every single morning
           Bb
Just as I arrive, I'm slaving to the grind
           Dm
Making the money, so I feed my family
           Bb
But I can't raise them, 'cause I ain't got the time

           Dm
I got no free days on my busy schedule
           Bb
I turn the page and it's the same
           Dm
Don't like my situation, you don't either
           Bb
Don't wanna look back scared, I will get away

Chorus :

 Dm F C Gm
I need a moment 'cause I've spread myself too thin
 Bb F A
We all need a moment in our life
 Dm F
Work's hard, the day's too long
     C Gm
And that's just where it begins
 Bb F A
Tension has had us all this time

Interlude :  Dm Bb  2x

Bridge :

 F C
But every now and then
             Gm Bb
I drive alone and over all
            F Dm C Bb
Hot summer day, a gentle breeze that feels alright
         F C Gm
All alone, and I can't feel no pain, only strain
           Bb F Dm C Bb
Enjoy the sights, I feel alive, relaxing here just feels alright
          F
Far from home

Solo :

 C Gm Bb F Dm - C - Bb C G A

Chorus :
 Dm F C Gm
I need a moment 'cause I've spread myself too thin
 Bb F A
We all need a moment in our life
 Dm F
Work's hard, the day's too long
     C Gm
And that's just where it begins
 Bb F A
Tension has had us all this time

Ending :

 Dm F C Gm Bb F A  4x

Scream solo Tabs by Avenged Sevenfold V3

 Artist: Avenged Sevenfold
 AVENGED SEVENFOLD (2007)
Song Title: Scream Solo
No.Track: #3
: Mars Sevenfold


++++++++++++++++++++

Guitar Tuning: Drop C# (C#,G#,C#,F#,A#,D#) OR Drop Db (Db,Ab,Db,Gb,Bb,Eb)

Legend


h  = Hammer on 
p  = Pull off
~  = Vibrato
/  = Slide down
\  = Slide up

++++++++++++++++++++

SOLO A

  Guitar 1: (x2)

  |_______________________________TRIPLETS____________________________________|
D#|-16-17-16--------16-17-16--------16-17-16--------16-17-16--------16-17-16--|\
A#|---------18-15-18--------18-15-18--------18-15-18--------18-15-18----------| \
F#|---------------------------------------------------------------------------|  \
C#|---------------------------------------------------------------------------|   \
G#|---------------------------------------------------------------------------|    \ 
C#|---------------------------------------------------------------------------|     \
  |_______________________________TRIPLETS____________________________________|      \
D#|-16-17-16--------16-17-16--------16-17-16--------16-17-16--------16-17-16--|       \
A#|---------17-14-17--------17-14-17--------17-14-17--------17-14-17----------|        \
F#|---------------------------------------------------------------------------|         \ 
C#|---------------------------------------------------------------------------|         / (x2)
G#|---------------------------------------------------------------------------|        /
C#|---------------------------------------------------------------------------|       /
  |_______________________________TRIPLETS____________________________________|      /
D#|-17-18-17--------17-18-17--------17-18-17--------17-18-17--------17-18-17--|     /
A#|---------18-15-18--------18-15-18--------18-15-18--------18-15-18----------|    /
F#|---------------------------------------------------------------------------|   /
C#|---------------------------------------------------------------------------|  /
G#|---------------------------------------------------------------------------| /
C#|---------------------------------------------------------------------------|/

  Guitar 1:  

D#|-16-15-14-12-14-15-16-15-14-12-14-15-17-16-15-12-15-16--17~~--|
A#|--------------------------------------------------------------|
F#|--------------------------------------------------------------|(1st)
C#|--------------------------------------------------------------|
G#|--------------------------------------------------------------|
C#|--------------------------------------------------------------|

D#|-------------------------------------21-20-18-17-18-20--21~~--|
A#|-21-20-19-17-19-20-21-20-19-17-19-20--------------------------|
F#|--------------------------------------------------------------|(2nd)
C#|--------------------------------------------------------------|
G#|--------------------------------------------------------------|
C#|--------------------------------------------------------------|

++++++++++++++++++++

SOLO B


  Guitar 1:
D#|----------------------------------------/18-17~-18-------------------------------------|
A#|--12/15-17-18-15-17-18-18/22---15-17--------------20------------20-21-17----------18---|
F#|----------------------------18-------18-------------19--------19--------16-17-18----18-| (x4)
C#|------------------------------------------------------20-17-20------------------19-----|
G#|---------------------------------------------------------------------------------------|
C#|---------------------------------------------------------------------------------------|


  Guitar 2:  
D#|------5--------12/13~------------------15-------------------------------------|
A#|--3/6---6h8h10--------5h6h8p5--/15-14~---15----------15-17--------------------|
F#|-------------------------------------------15------15-------------------------| (x4)
C#|---------------------------------------------17--17------

A Little Piece Of Heaven Live solo Tabs by Avenged Sevenfold

 this is the riff that syn played (which is tremendously beautiful) during the great live 
on lbc for the song 'a little piece of heaven'.

i just want to share this just so we could discuss and improvise for the closest tab 
that we could think of on the riff that we are looking for.

e|------------------------------------------------------------------------|
B|------------------------------------------------------------------------|
G|--------9-------9---------3------3-------5--------7-------5-------7-----|
D|-----7-------7---------3-------3------5--------5-------5-------5--------|
A|--5-------5---------1-------1-------5-------5-------5-------5-----------|
D|------------------------------------------------------------------------|

so far this is all that i am able to figure out. hope you guys have a better idea of 
what scales that he intend to use so at least we would know the right notes that he could 
be using.

i cant figure out how the last set of the riffs (before going back to the start) goes 
but the last note (on the G string) sound more like 7, 9, 10, 9 then back to start.

help, in need. do give honest critics, thank you.

Not Ready To Die solo Tabs by Avenged Sevenfold

 Not Ready To Die Solo
by Avenged Sevenfold
Tuning: D A D G B E low to high

E-12/17--17--17h18--17b--16/12--12--14--15-----15--17--18--17--15--13--------|
B--------------------------------------------15----------------------15------|
G------------------------------------------15--------------------------14-15-|
D----------------------------------------------------------------------------|
A----------------------------------------------------------------------------|
D----------------------------------------------------------------------------|

E---17b--13--------------18--17--16/12--12--16--17----------------------------|
B-15-------15-------------------------------------14b--15--14--15--15v----13--|b
G------------14--14b---14-----------------------------------------------------|
D--------------------15-------------------------------------------------------|
A-----------------------------------------------------------------------------|
D-----------------------------------------------------------------------------|

E-10--12--13--10--12\ /12--14--15\ /15--17--18--17--15--17--13---------|
B-------------------------------------------------------------15----15-|
G---------------------------------------------------------------14-15--|
D----------------------------------------------------------------------|
A----------------------------------------------------------------------|
D----------------------------------------------------------------------|

E-17-18-17-13-17-13--17-18-17-13-17-13--17-18-17-15-13------------------|
B------------------------------------------------------15--13h15p13--15-|
G--------------------------------------------------------15--------15---|
D-----------------------------------------------------------------------|
A-----------------------------------------------------------------------|
D-----------------------------------------------------------------------|

E-16-12-13-16-13-12-------------------------------------------12-17-13-|
B------------------13-12-9-10-12-10-9--12p9----12-9-10-12-10-9---------|
G------------------------------------------10-9------------------------|
D----------------------------------------------------------------------|
A----------------------------------------------------------------------|
D----------------------------------------------------------------------|

E----------------------------------------------------------------------|
B-17-15-14-15-17-15-14-17-14-15--14h17p14-------14---------------------|
G------------------------------14--------14--14(18)14------------------|
D------------------------------------------14--------15-14-15-17-15-14-|
A----------------------------------------------------------------------|
D----------------------------------------------------------------------|

E----------------------------------------------------------------------|
B----------------------------------------------------------14-15-16-17-|
G----------------------------------14-15-17-15-14--14-15-17------------|
D-12-11-12-14-12-11--------14-15-17--------------17--------------------|
A------------------14-11-16--------------------------------------------|
D----------------------------------------------------------------------|

E-14-15-16-17v-|
B--------------|
G--------------|
D--------------|
A--------------|
D--------------|

Key:
v    =   vibrato
b    =   bend
\ /  =   slide the note up and then back down the neck to the same note
/    =   slide the note
h    =   hammer on
p    =   pull off
(18) =   alternate note on G string in place of 14 on B string

Notes:
Vibratos are usually two quick bends.
Bends are small bends - listen to the song to figure out what degree to bend it too.

Shepherd Of Fire solo Tabs by Avenged Sevenfold V2

 -------------------------------------------------------------------------------
                             Shepherd of Fire - Avenged Sevenfold
-------------------------------------------------------------------------------
:SlimCognito51
slimcognito20@live.com
Tuning:Drop D
Youtube-SlimCognito51

    full   full
e|-15brb--15brbh13---------------------13-17-17-17-13--------13-16-16-16--|
B|---------------------15-13-15v----15----------------15---15-------------|
G|-------------------------------14----------------------14---------------|
D|------------------------------------------------------------------------|
A|------------------------------------------------------------------------|
E|------------------------------------------------------------------------|

e|-13------13-15-15-15-13-----13-13-13-10------10-12-12-12-10------------|
B|---15--15--------------15--------------10--10--------------10----------|
G|-----14------------------14--------------10------------------10-13v----|
D|-----------------------------------------------------------------------|
A|-----------------------------------------------------------------------|
E|-----------------------------------------------------------------------|

e|--------------------------------------15brb-15v------------------------|
B|-13br13p10-----------------15br-p13------------------------------------|
G|----------12-10-12b-10--------------14---------------------------------|
D|----------------------12-10--------------------------------------------|
A|-----------------------------------------------------------------------|
E|-----------------------------------------------------------------------|

e|----------------------------------------------------------------------|
B|-18-18-18-18-15-15-15-15-17-17-17-17-18-18-18-18----------------------|
G|------------------------------------------------17-17-17-17-----------|
D|-----------------------------------------------------------18-18-18-18|
A|----------------------------------------------------------------------|
E|----------------------------------------------------------------------|

e|--------------------------------------------------------------------|
B|--------------------------------------------------------------------|
G|-17-17-17-17--------------------------------------------------------|
D|------------15-15-15-15-17-17-17-17-18v-----------------------------|
A|--------------------------------------------------------------------|
E|--------------------------------------------------------------------|

e|-------------9-12-10-9----------------10-15-13-10--10-13-10-15-10---|
B|-----------10---------10------------11-----------13-----------------|
G|----------9-------------9---------10--------------------------------|
D|--------10---------------10-----12----------------------------------|
A|-8-11-12-------------------12-13------------------------------------|
E|--------------------------------------------------------------------|

e|-16-15-13-15-16-15-13---------------------------|
B|---------------------15-14v---------------------|
G|------------------------------------------------|
D|------------------------------------------------|
A|------------------------------------------------|
E|------------------------------------------------|

e|----------------9-10-12b-10-13b-12-17/12-12-9-10-12-13-13/15-13-12--------|
B|---------9-10-12--------------------------------------------------15v-----|
G|--9-10-12-----------------------------------------------------------------|
D|--------------------------------------------------------------------------|
A|--------------------------------------------------------------------------|
E|--------------------------------------------------------------------------|

e|----------------------------------------------------------------------|
B|---------------10-11-13v----------------11-13-15v----------------

Buried Alive solo Tabs by Avenged Sevenfold

 Artist: Avenged Sevenfold
 Nightmare (2010)
Song Title: Buried Alive Solo
No.Track: #4
Tabbed: Mars Sevenfold


+++++++++++++++++++++++++


* I tab this solo because I want making it amazing like 
  crazy sweeping like SYN'S play all time and 
  you will see all this stuff mostly sweeping part ,, 
  So hope you like it guys! No bad comment please! .. 
  and one thing please rate it! Avenged Sevenfold Forever!!



Guitar Tuning: Drop D (D A D G B e)

Legend

p   - Pull off
h   - Hammer on
b   - Bend
[]  - Perfect bend or perfect sound
~   - Vibrato
/   - Slide down
\   - Slide up
==  - Tremolo picking 

+++++++++++++++++++++++++

PRE-SOLO

 Guitar 1:

e|-----------------------------------------------------|
B|------------15-17\13~--10-15\10~-------------13-15~--|
G|--/17-17-17----------------------12-16-16-16---------| x2
D|-----------------------------------------------------|
A|-----------------------------------------------------|
D|-----------------------------------------------------|

e|-----------------------------------------------------|
B|--/10-10-10-12-13\8~--5/10-----------------10-12~----|
G|---------------------------10~-9--12-12-12-----------| x2
D|-----------------------------------------------------|
A|-----------------------------------------------------|
D|-----------------------------------------------------|

+++++++++++++++++++++++++

SOLO A

 Guitar 1:

e|-17h----17h----17h----17h----17h-------15h----15h----15h----15h----15h--------|
B|----17-----17-----17-----17-----17--------17-----17-----17-----17-----17p13---|
G|------17-----17-----17-----17-----17p14-----17-----17-----17-----17--------14-| 
D|------------------------------------------------------------------------------|
A|------------------------------------------------------------------------------|
D|------------------------------------------------------------------------------|

e|-17h----17h----17h----17h----17h-------15h----15h----15h----15h----15h--------|
B|----18-----18-----18-----18-----18p15-----15-----15-----15-----15-----15p12---|
G|------19-----19-----19-----19--------14-----16-----16-----16-----16--------12-|
D|------------------------------------------------------------------------------|
A|------------------------------------------------------------------------------|
D|------------------------------------------------------------------------------|

e|-17h----17h----17h----17h----17h-------15h----15h----15h----15h----15h--------|
B|----17-----17-----17-----17-----17--------17-----17-----17-----17-----17p13---|
G|------17-----17-----17-----17-----17p14-----17-----17-----17-----17--------14-|
D|------------------------------------------------------------------------------|
A|------------------------------------------------------------------------------|
D|------------------------------------------------------------------------------|
                                                                                     
e|-17h----17h----17h----17h----17h-------|---------------------------20-------------19b[20]-|
B|----18-----18-----18-----18-----18-----|-21-22-21-20-21-22-21-20-24--24-22------17--------|
G|------19-----19-----19-----19-----19---|--------------------------------------17----------|
D|------------------------------------19-|------------------------------------19------------|
A|---------------------------------------|----------------------------------19--------------|
D|---------------------------------------|--------------------------------------------------|

 
 Guitar 2: 

e|-12h----12h----12h----12h----12h------12h----12h----12h----12h----12h-------|
B|----13-----13-----13-----13-----13p10----13-----13-----13-----13-----13-----|
G|------14-----14-----14-----14--------9-----12-----12-----12-----12-----12---|
D|-------------------------------------------------------------------------14-|
A|-----------------------------

Heretic solo Tabs by Avenged Sevenfold

 Artist: Avenged Sevenfold
 Hail to the King (2013)
Song Title: Heretic
No.Track: #7
: Mars Sevenfold

++++++++++++++++++++++++++++++

Guitar Tuning: Drop D (D A D G G e)

Legend

h      = Hammer on
p      = Pull off
b      = Bend
1.2    = Half bend
full   = Full bend
/      = Slide down
\      = Slide up
~      = Vibrato short duration
~~     = Vibrato medium/long duration
[]     = Perfect sound or perfect bend
|___|  = Hold bend

++++++++++++++++++++++++++++++

SOLO A


 Guitar 1:

   |_______full_______|          |__________1.2_________|       |_____________1.2_____________|
|-/8b[10]-8b[10]-8b[10]----------12b[13]--12b[13]-12b[13]-------17b[18]--17b[18]17b[18]-17b[18]--|
|----------------------11-10-----------------------------15-13-----------------------------------|
|---------------------------12-10-----------------------------14---------------------------------|
|------------------------------------------------------------------------------------------------|
|------------------------------------------------------------------------------------------------|
|------------------------------------------------------------------------------------------------|

|--15p13p12-12/15-12-------12h15p12----------------|
|-------------------14--14----------14--14------14-|
|---------------------12--------------12--12--12---|
|-------------------------------------------11-----|
|--------------------------------------------------|
|--------------------------------------------------|

|-------------------------------------|    |------------------------------|
|--------------------------13---------|    |------------------------------|
|--12b[14]--12[14]~~--12-14--14-12-14-| x2 |-14b[15]--14b[15]--/12-10-9~--|
|-------------------------------------|    |------------------------------|
|-------------------------------------|    |------------------------------|
|-------------------------------------|    |------------------------------|

++++++++++++++++++++++++++++++

SOLO B


 Guitar 1: 
|-------------------------12-13--------------12-13-12------------------|
|-----------------------10-----15----------15--------10----------------|
|--9-10-9--9--9-10--9-10---------14------14------------10----------14--|
|--------11-11----11---------------15--15------------------12-14-15----|
|------------------------------------17------------------12------------|
|----------------------------------------------------------------------|

|---17-----------------------17-17-----------------------17--18~-17--15-17-18--|
|-----18----------------17-18-----18----------------17-18----------------------|
|-------19------------19------------19------------19---------------------------|
|---------19--------19----------------19--------19-----------------------------|
|-----------20-17-20--------------------20-17-20-------------------------------|
|------------------------------------------------------------------------------|

|--17--15-----18-------17------------------------------------------------|
|----17--18-17--18-17----18-17--17--------14-----------------------------|
|--------------------15-------15--18-15-13--15-14------------------------|
|------------------------------------------------14-11--14-11--11-14-11--|
|-----------------------------------------------------12-----12----------|
|------------------------------------------------------------------------|

++++++++++++++++++++++++++++++

SOLO C

 Guitar 1:
|------------------|------------------------|-------------------------------------------------|
|------------------|------------------------|-------------------------15-14--15-14-15b[17]~~--|
|--7~-/14\7/4\--7~-|--9/10--/17\10/17\--10~-|--15b[17]~~--15-14-15--15------------------------|
|------------------|------------------------|-------------------------------------------------|
|------------------|------------------------|-----------------------

Shepherd Of Fire solo Tabs by Avenged Sevenfold

 : Connor Ford

  Avenged Sevenfold
Song:  Shepherd of Fire
 Hail To The King (2013)


Tuning: Drop D (D, A, D, G, B, E)
(Tune the low down 1 step)


The solo still hadn’t been tabbed so I thought I’d do it to help out

Please rate, comment, correct, anything that will help :)


Hammer on:        h
Pull off:         p
Slide up:         /
Slide down:       \
Bend up:          BU(?)
Vibrato:          ~~~
Dive Bomb:        DB
Tremolo Pick:     Tr---

Guitar 1: Synyster Gates (Lead)
Guitar 2: Zachy Vengeance (Rhythm)
Guitar 3: Syn (Additional Lead)
Guitar 4: Syn (Additional Harmony Lead)

Solo Rhythm part 1
Guitar 2
||---------------------------------||
|o---------------------------------o|
||---------------------------------||
||-0---------------8---8---5---5---|| x4
|o-0---------------8---8---5---5---o|
||-0-----0000000---8---8---5---5---||

Solo part 1

Guitar 1
|-15BU(17)(15)(17)~~~~-13h15p13-|
|-------------------------------|
|-------------------------------|
|-------------------------------|
|-------------------------------|
|-------------------------------|

|-----13-17-13-17-13----13-16-13-16-13----13-15-13-15-13---13-|
|---15---------------15----------------15----------------15---|
|-14----------------------------------------------------------|
|-------------------------------------------------------------|
|-------------------------------------------------------------|
|-------------------------------------------------------------|

|-13-10-13-10----10-12-10-12-10----------------------|
|-------------10----------------10-------------------|
|----------------------------------10-13~~~~~~~~~~~~-|
|----------------------------------------------------|
|----------------------------------------------------|
|----------------------------------------------------|

|-------------------------------------------------------------------|
|-13BU(15)~~~~-10-----------------------------15BU(17)~~~~-13h15p13-|
|-----------------12-10-12BU(14)~~~~-10h12p10-----------------------|
|-------------------------------------------------------------------|
|-------------------------------------------------------------------|
|-------------------------------------------------------------------|

|-15BU(17)~~-(15)(17)~~~~~~-|
|---------------------------|
|---------------------------|
|---------------------------|
|---------------------------|
|---------------------------|

|---------------------------------------------------------------------------------------|
|-18-18-18-15-15-15-17-17-17-18-18-18---------------------------------------------------|
|-------------------------------------17-17-17-13-13-13-17-17-17------------------------|
|----------------------------------------------------------------15-15-15-17---18~~-----|
|---------------------------------------------------------------------------------------|
|---------------------------------------------------------------------------------------|

|-----------5h10p5-------------------------10h15p13p10----10-|
|---------6--------6--------------------10-------------13----|
|-------7------------7---------------10----------------------|
|-----7----------------7-------10-12-------------------------|
|-5-8--------------------10-12-------------------------------|
|------------------------------------------------------------|

|-13-10----10-15-10----10-13-10-13-16-13----13-16-17-16-13----|
|-------13----------13-------------------15----------------15-|
|-------------------------------------------------------------|
|-------------------------------------------------------------|
|-------------------------------------------------------------|
|-------------------------------------------------------------|

Solo Rhythm part 2
Guitar 2
|-----------------------------------|--------------------------------|
|-----------------------------------|--------------------------------|

Doing Time solo Tabs by Avenged Sevenfold V2

 (/) Slide Up  (\) Slide Down  (h) Hammer On  (p) Pull Off  (b) Bend (r) Release (v) Vibrato

This is tabs of the epic "Doing time" solo by Avenged Sevenfold.

SONG: DOING TIME
ARTIST: AVENGED SEVENFOLD
 HAIL TO THE KING, 2013
TUNING: DROP D ( D A D G B E )


Solo start (Full bend)
E|-------7-----|
B|-------10----|
G|-------------|x7
D|-------------|
A|-------------|

E|-------10----|
B|-------13----|
G|-------------|x7
D|-------------|
A|-------------|
E|-------------|


AND THE RAGE BEGINS!

E|-------12-------|
B|-------15-------|
G|----------------|x8
D|----------------|
A|----------------|
E|----------------|

E|-------15----|
B|-------18----|
G|-------------|x3
D|-------------|
A|-------------|
E|-------------|

E|-------18----|
B|-------21----|
G|-------------|x6
D|-------------|
A|-------------|
E|-------------|

NOW COMES THE FAST PART!

E|---------------------------------------------------|
B|---15-11-12-15-12-11-15-11-12-15-12-11-15-11-12-15-|
G|---------------------------------------------------|
D|---------------------------------------------------|
A|---------------------------------------------------|
E|---------------------------------------------------|

E|---------------------------------------------------|
B|---12-11-15-11-12-15-12-11-15-11-12-15-12-11-12----|
G|------------------------------------------------14-|
D|---------------------------------------------------|
A|---------------------------------------------------|
E|---------------------------------------------------|

                                 (p)
E|---17-12-15-17-15----12-------15-12-------12-------12------------------|
B|------------------15----12-15-------12-15----12-15---------------------|
G|-----------------------------------------------------------------------|
D|-----------------------------------------------------------------------|
A|-----------------------------------------------------------------------|
E|-----------------------------------------------------------------------|

E|---17-15-12-12---------------------------------------------|
B|---------------15-12----12-15------------------------------|
G|---------------------15-------15-12------------------------|
D|------------------------------------14-12------------------|
A|-----------------------------------------------------------|
E|-----------------------------------------------------------|


The insane fast part is over but still some tricky stuff left!

E|--------------------------------------------------------------------------------------15--|
B|---12-----------------------14-------------------12-----------14-----------15---------15--|
G|---12-----------------------14-----14-12-14------12-----------14-----------15-------------|
D|----------14-12-14--------------------------------------14-12--------14-12-------14-12----|
A|------------------------------------------------------------------------------------------|
E|------------------------------------------------------------------------------------------|

More badass full bending

E|--------12----------14----------15-----------------|
B|--------15----------17----------18-----------------|
G|---------------------------------------------------|
D|---------------------------------------------------|
A|---------------------------------------------------|
E|---------------------------------------------------|

AND THE SOLO IS DONE!


I hope you liked it. Feel free to comment, for me to correct, if something is wrong :)

CHEERS!


Credits: Written and made by Christian Svanberg

Doing Time solo Tabs by Avenged Sevenfold

 Artist: Avenged Sevenfold
 Hail to the King (2013)
Song Title: Doing Time Guitar Solo
No.Track: #4

+++++++++++++++++++++

Guitar Tuning: (D A D G B e )

Legend

b   = Bend
~   = Vibrato short duration
~~  = Vibrato medium duration
~~~ = Vibrato long duration
[]  = Perfect bend or perfect sound
\   = Slide Up
/   = Slide Down
h   = Hammer on
p   = Pull off
 
+++++++++++++++++++++

Solo A:

 Guitar 1:
e|--10b~~-10b~~-10b~~--10b~10b~---12---------12---------12---------12---------12---------|
B|--------------------------------15b[17]~~--15b[17]~~--15b[17]~~--15b[17]~~--15b[17]~~--|
G|---------------------------------------------------------------------------------------|
D|---------------------------------------------------------------------------------------|
A|---------------------------------------------------------------------------------------|
D|---------------------------------------------------------------------------------------|

e|--15---------|----15---------15---------|--18---------|----18--------18--------|
B|--18b[20]~~~-|----18b[20]~~--18b[20]~~--|--21b[23]~~~-|----21[23]~~--21[23]~~--|
G|-------------|--------------------------|-------------|------------------------|
D|-------------|--------------------------|-------------|------------------------|
A|-------------|--------------------------|-------------|------------------------|
D|-------------|--------------------------|-------------|------------------------|


+++++++++++++++++++++

Solo B:

 Guitar 1:
e|--10-----10--------10-----10--------10--------10-----10--------10----------|
B|----11-12--11-12-11--11-12--11-12-11--11-12-11--11-12--11-12-11--11-12/15--|
G|---------------------------------------------------------------------------|
D|---------------------------------------------------------------------------|
A|---------------------------------------------------------------------------|
D|---------------------------------------------------------------------------|

e|--15--17-15-------------------------------15--17-15------------------------|
B|----15-----17-15-----15-17--15--------15----15-----17-15-12----------------|
G|----------------16-15-----16--16-15-16--15-----------------15----------16--|
D|-------------------------------------------------------------17--------17--|
A|---------------------------------------------------------------19-17~------|
D|---------------------------------------------------------------------------|


+++++++++++++++++++++

Solo C:

Guitar 1:

e|---------------|--------------7~~~-|--------------------6~~-|----------15~~~--|
B|-------------8-|--10-8--10~~~-8~~~-|-------10~~~--10-8--8~~-|--11-10---17~~~--|
G|--9-7--9~~~--9-|-------------------|--9-7---9~~~------------|-----------------|
D|---------------|-------------------|------------------------|-----------------|
A|---------------|-------------------|------------------------|-----------------|
D|---------------|-------------------|------------------------|-----------------|

e|--12----------14----------15-------|
B|--15b[17]-----17b[19]-----18b[20]--|
G|-----------------------------------|
D|-----------------------------------|
A|-----------------------------------|
D|-----------------------------------|

+++++++++++++++++++++

*Words and Music By Avenged Sevenfold

- M.Shadows
- Synyster Gates
- Zacky Vengeance
- Johnny Christ
- Arin Ilejay

+++++++++++++++++++++