Tag: Beast

Circus For A Psycho Chords – Skillet

 Intro

 Dm Dm Dm C Dm Gm F  (x4)

VERSE 1

 Dm 
You push me 'til I break
 Dm 
And the anger turns to rage
 Dm Gm 
Why can't you just leave me alone?
 Dm 
You've got your finger on the trigger
 Dm 
And you think that you're the winner
 Dm 
But you're gonna get kicked, off of your throne now

 Dm C Dm Gm F Dm C Dm Gm F Dm 
You think you're gonna hurt me
 Dm 
Get ready to get dirty
 Dm Gm 
You created this beast inside
 Dm 
Pull the noose tighter,
 Dm 
And lift a little higher
 Dm 
'Cause you're killing me slow, but I aint ready to die
(Killing me slow, but I aint ready to die!)

CHORUS

 Gm Bb Dm 
Tonight, get ready for a fight
     F Gm Bb 
So now you know it's time to ride
      Dm F Gm 
The circus for a psycho
 Bb Dm 
Round and round we go
 F Bb 
Look out below, 'cause I
                C 
Want off this, I want off this...
 Dm C Dm Gm F 
Circus for a psycho! (Psycho! Go go go!)
 Dm C Dm Gm F 
Circus for a psycho! (Psycho! Here we go!)
 Dm C Dm Gm F Dm C Dm Gm F 

VERSE 2

 Dm 
Everybody down,
 Dm 
Gonna burn it to the ground
 Dm Gm 
Can't keep this beast inside?
 Dm 
Never again, never again
 Dm 
You're killing me slow, I aint ready to die
Killing me slow, but I aint ready to die!

CHORUS

 Gm Bb Dm 
Tonight, get ready for a fight
     F Gm Bb 
So now you know it's time to ride
      Dm F Gm 
The circus for a psycho
 Bb Dm 
Round and round we go
 F Bb 
Look out below, 'cause I
                C 
Want off this, I want off this...
 Dm C Dm Gm F 
Circus for a psycho! (Psycho! Go go go!)
 Dm C Dm Gm F 
Circus for a psycho! (Psycho! Here we go!)
 Dm C Dm Gm F Dm C Dm Gm F 

*solo* (approximately)

 F Gm C Dm Gm F C Gm F Cm Gm F Gm C Dm 

BRIDGE

 Dm 
You think you're gonna hurt me
 Dm 
Get ready to get dirty
 Dm 
Gonna burn this place to the ground!

CHORUS

 Gm Bb Dm 
Tonight, get ready for a fight
     F Gm Bb 
So now you know it's time to ride
      Dm F Gm 
The circus for a psycho
 Bb Dm 
Round and round we go
 F Gm Bb 
Look out below, it's time to ride
      Dm F 
The circus for a psycho
 Gm Bb Dm</span

Raider Ii Tabs by Steven Wilson

 So, here's the tab to Steven's beast song... REALLY good song, I hope you enjoy the tab...
I sure as hell did enjoy tabbing it.

2:50
e||-----------------------------||
B||-----------------------------||
G||o---------------------------o||
D||o---------------------------o|| x4
A||-----------------------------||
E||--0---0---3--0-3-0--3-0-3----||


3:52
e|---------6----------------4---|
B|-8--8-8--6--------7--7-7--4---|
G|-9--9-9--7--------7--7-7--5---|
D|-9--9-9--8--------7--7-7--6---|
A|-7--7-7--8--------5--5-5--6---|
E|---------6----------------4---|

e|---------6----------------4-------1---|
B|-8--8-8--6--------7--7-7--4-------1---|
G|-9--9-9--7--------7--7-7--5-------2---|
D|-9--9-9--8--------7--7-7--6-------3---|
A|-7--7-7--8--------5--5-5--6-------3---|
E|---------6----------------4-------1---|

e||-----------------------------||
B||-----------------------------||
G||o---------------------------o||
D||o---------------------------o|| x4
A||-----------------------------||
E||--0---0---3--0-3-0--3-0-3----||


Not entirely sure about these chords, but I BELIEVE them to be correct, 
at least correct enough to sound good... listen to the song for timing
4:41
e||-------------------------||
B||--3--3--3--2-2--2--2-2---||
G||o-2--2--2--2-2--2--2-2--o||
D||o-2--2--2--2-2--2--2-2--o||
A||--0--0--0--0-0--0--0-0---|| x8
E||-------------------------||

e||--3--3--3--2-2--2--2-2---||
B||--3--3--3--3-3--3--3-3---||
G||o-0--0--0--0-0--0--0-0--o||
D||o-0--0--0--0-0--0--0-0--o||
A||--2--2--2----------------|| x4
E||--3--3--3--3-3--3--3-3---||

e||-------------------------||
B||--3--3--3--2-2--2--2-2---||
G||o-2--2--2--2-2--2--2-2--o||
D||o-2--2--2--2-2--2--2-2--o||
A||--0--0--0--0-0--0--0-0---|| x4
E||-------------------------||

e||--3--3--3--2-2--2--2-2---||
B||--3--3--3--3-3--3--3-3---||
G||o-0--0--0--0-0--0--0-0--o||
D||o-0--0--0--0-0--0--0-0--o||
A||--2--2--2----------------|| x4
E||--3--3--3--3-3--3--3-3---||

e||-------------------------||
B||--3--3--3--2-2--2--2-2---||
G||o-2--2--2--2-2--2--2-2--o||
D||o-2--2--2--2-2--2--2-2--o||
A||--0--0--0--0-0--0--0-0---|| x4
E||-------------------------||

e||--3--3--3--2-2--2--2-2---||
B||--3--3--3--3-3--3--3-3---||
G||o-0--0--0--0-0--0--0-0--o||
D||o-0--0--0--0-0--0--0-0--o||
A||--2--2--2----------------|| x4
E||--3--3--3--3-3--3--3-3---||

e||--3--3--3--2-2--2--2-2---||
B||--1--1--1--1-1--1--1-1---||
G||o-2--2--2--2-2--2--2-2--o||
D||o-2--2--2--2-2--2--2-2--o||
A||--0--0--0--0-0--0--0-0---|| x4
E||-------------------------||

e|-2--2--2-2-3--3--3-3-7--7--7-7--7-7--7--7-7---|
B|-3--3--3-3-3--3--3-3-7--7--7-7--7-7--7--7-7---|
G|-2--2--2-2-0--0--0-0-8--8--8-8--8-8--8--8-8---|
D|-0--0--0-0-2--2--2-2-9--9--9-9--9-9--9--9-9---|
A|-----------3--3--3-3-9--9--9-9--9-9--9--9-9---|
E|---------------------7--7--7-7--7-7--7--7-7---|

e|-2--2--2-2-0--0--0-0-7--7--7-7--7-7--7--7-7---|
B|-3--3--3-3-1--1--1-1-7--7--7-7--7-7--7--7-7---|
G|-2--2--2-2-2--2--2-2-8--8--8-8--8-8--8--8-8---|
D|-0--0--0-0-2--2--2-2-9--9--9-9--9-9--9--9-9---|
A|-----------0--0--0-0-9--9--9-9--9-9--9--9-9---|
E|---------------------7--7--7-7--7-7--7--7-7---|

e|-2--2--2-2-3--3--3-3-7--7--7-7--7-7--7--7-7--7--7--7-7--7-7--7--7-7---|
B|-3--3--3-3-3--3--3-3-7--7--7-7--7-7--7--7-7--7--7--7-7--7-7--7--7-7---|
G|-2--2--2-2-0--0--0-0-8--8--8-8--8-8--8--8-8--8--8--8-8--8-8--8--8-8---|
D|-0--0--0-0-2--2--2-2-9--9--9-9--9-9--9--9-9--9--9--9-9--9-9--9--9-9---|
A|-----------3--3--3-3-9--9--9-9--9-9--9--9-9--9--9--9-9--9-9--9--9-9---|
E|---------------------7--7--7-7--7-7--7--7-7--7--7--7-7--7-7--7--7-7---|


7:25
e|---------6----------------4---|
B|-8--8-8--6--------7--7-7--4---|
G|-9--9-9--7--------7--7-7--5---|
D|-9--9-9--8--------7--7-7--6---|
A|-7--7-7--8--------5--5-5--6---|
E|---------6----------------4---|

e|---------6----------------4-------1---|
B|-8--8-8--6--------7--7-7--4-------1---|
G|-9--9-9--7--------7--7-

Let Out The Beast Chords – Exo

 C#m ,  A ,  B 
[Kai]
Shinsa sungyeo
Yeoreobun
Ah, Ah, Ah, Ah
 C#m ,  A ,  B 
[ChanYeol]
Tiket deulgeo wannayo (Yo!)
Yeogiro yeogiro jureul seobwayo (Yo!)
[Kai]
Geokjeong marayo yeogi pyeonhi anjayo (Yo!)
Jakku shigyen wae bwayo kkeutkkaji bwayoja
 C#m ,  A ,  B 
[ D .O]
Jigeumbuteo lose control ([SuHo] Trol)
Noraega deullimyeon chumchwo ([SuHo] Chwo)
Pokbalhal geot gateun neoui eneoji
Naneun meomchul suga eobseo ([ChanYeol] Oh No!)
 C#m ,  A ,  B 
[SuHo]
Oraetdongan sumgyeo wasseotdeon ([ChanYeol] Yeah! Yeah!)
Soge inneun yasureul pulgo ([ChanYeol] No! No!)
[BaekHyun]
Cheonbang jichuk ai gateun nan ([SeHun] Yep! Yep!)
Jeoldae gildeuril su eobseo ([Kai] Ah! Ah!)
 C#m ,  A ,  B 
[ D .O/SuHo]
Mudae wiro jomyeongi nareul bichumyeon
Nareul boneun saram modu ppajyeo ([ChanYeol] Ai!)
Mudae wiro jomyeongi nareul bichumyeon ([SuHo] So what? So what?)
Nunbit hanakkaji nochijima ([SeHun] Ai!)
 C#m ,  A ,  B 
[ D .O]
Sumgyeodul su eomneun bonneung
You know I'’m gonna ([D.O] Let out the beast!)
[SuHo]
Neodo neukki janha
You know you wanna ([D.O] Let out the beast!)
 C#m ,  A ,  B 
[BaekHyun] Shijakhanda Show Time
[D.O] Let out the beast!
[BaekHyun] Geuge sorichyeobwa
[D.O] Let out the beast!
[BaekHyun] Ije moduda
[D.O] Let out the beast! ([SeHun] Yeah!)
Let out the beast! Let out the beast! ([SeHun] Yeah! Yeah!)
 C#m ,  A ,  B 
[SeHun]
Yeogi, jeogi, teojineun Flash
Naui seutaireun Hot, jom Fresh
[Kai]
Geochin sumsoriro
Yeotaekkeot gyeongheomhaji motan geol
 C#m ,  A ,  B 
[BaekHyun]
Uriga still in control ([SuHo] Trol)
Eumageun jungdogi dwaego ([SuHo] Chwo)
Tteok kkeutegoin ttambang ulkkaji
Neon nuneul ttel su eobseo ([ChanYeol] Oh No!)
 C#m ,  A ,  B 
[SuHo]
Eongnulleotdeon neoui gaseume ([ChanYeol] Yeah! Yeah!)
Jamgyeo inneun saseureun pulgo ([ChanYeol] No! No!)
[ D .O]
Jeo dari sarajil ttaekkaji ([SeHun] Yep! Yep!)
Jeoldae meomchul suneun eobseo ([Kai] Ah! Ah!)
 C#m ,  A ,  B 
[ D .O/SuHo]
Mudae wiro jomyeongi nareul bichumyeon
Nareul boneun saram modu ppajyeo ([ChanYeol] Ai!)
Mudae wiro jomyeongi nareul bichumyeon
Nunbit hanakkaji nochijima ([SeHun] Ai!)
 C#m ,  A ,  B 
[ D .O]
Sumgyeodul su eomneun bonneung
You know I'’m gonna ([D.O] Let out the beast!)
[SuHo]
Neodo neukki janha
You know you wanna ([D.O] Let out the beast!)
 C#m ,  A ,  B 
[BaekHyun] Shijakhanda Show Time
[D.O] Let out the beast!
[BaekHyun] Geuge sorichyeobwa
[D.O] Let out the beast!
[BaekHyun] Ije moduda
[D.O] Let out the beast! ([ChanYeol] Yeah!)
Let out the beast! Let out the beast! ([ChanYeol] Yeah! Yeah!)
 C#m ,  A ,  B 
[ChanYeol]
Naneun neol gajillae (What?)
Geuman domangga mulji anha
Kkeutkkaji dangi dwae
Nochineun geon jeoldae andwae ([SeHun] Sashireun mwo~)
You know that I know neon ppajyeonagal
Gihoega eobseo nan imi beolsseo
[Kai]
Ja ije, shijakhae
Geudaeui mameul ppaeseul charyeo
 C#m ,  A ,  B 
[ChanYeol] Now right! [SeHun] Right!
[ChanYeol] Left! [SeHun] Left!
[SeHun] Waenjjogeul bomyeo now Step! Step! ([Kai] Ha!)
[ChanYeol] Now right! [SeHun] Right!
[ChanYeol] Left! [SeHun] Left! ([SeHun] Yep! Yep!)
[SeHun] Dwidoraseo ja now Step! Step!
 C#m ,  A ,  B 
([D.O] You got me going crazy girl~)
[BaekHyun] Nae sok yasuga dallyeo deureodo
([D.O] You got me g

True Thrush Chords – Dan Deacon

 D 
Beast of my brain, everybody's the same
                                                                                                G 
With the beast is control, it will never turn gold, and that's just life
 D 
Don't touch the flame, of the burning decay
                                                                                                G 
With the lies you've been sold, let the nightmare unfold, if you don't mind


 D 
And they're all out, I'm lost there alone
                                                                   G 
No hand to hold high, Looking for me, I'm gone
 D 
Spread those wings wide and take me along
                                                               G 
Now show me the sky and tell me I'm wrong.


 D 
Beast of my brain, everybody's the same
                                                                                     G 
With the beast is control, it will never turn gold, and that's just life
 D 
Don't touch the flame, of the burning decay
                                                                                     G 
With the lies you've been sold, let the nightmare unfold, if you don't mind

http://www.dandeacon.com/

Dead Sue Chords – Wooden Wand And The Sky High Band

 D G D 
Sue, don't waste your love
      G D 
Come down from off that truck
             A G D 
It's a shit business, but you're not stuck
                 G D 
You thought you had enough
   G D 
Detached your ankle cuffs
     A G D 
And bolted beyond the bluffs
     G D 
You found yourself in mud
            G A 
before you ever tasted blood

bridge:
 D  -  G  -  D  4x

melody:
e|---------------------------|
B|---------------------------|
G|---------------------------|
D|-0-----2-4-----------0-----|
A|-----------2-----0-2-------|
E|---------------------------|

             G D 
Like me you aim to soothe
     G D 
But doubt was on the move
     A G D 
Its aim was to disprove
                G D 
Come from your sewing room
      G D 
Your best will birth a boon
          A G D 
Did they read your palm too soon?
     G D 
And eight days following death
        G A 
You'll rise and draw a breath

bridge:
 D  -  G  -  D  4x

                      G D 
Your parasitism is in peril now
           G D 
What an inhospitable host you found
          A G D 
And your luck has been ground down
                G D 
Soon those you ostracized
                  G D 
Will strike like bolts between your eyes
 D A G D 
You don't convince, why feign surprise
 G D 
And when they burn the books
            G A 
I hope you still get by on your looks

bridge:
 D  -  G  -  D  4x

             G D 
You let your heartaches pass
         G D 
They're only built on glass
      A G D 
Come see what you've amassed
                  G D 
The beast like a dragon spake
      G D 
Said swallow all you take
              A G D 
'Cause your extinction is home plate
      G D 
Look now beyond false friends
     G A 
And lie 'neath my awning again

bridge:
 D  -  G  -  D  4x

Beast In Air Beast In Water Tabs by Snowmine

 Standard Tuning

[0:10]-[0:23]
|--14----14----14------------------12----12----12----12--|
|-----15----15----15--17/19\17--14----14----12----12-----|
|--------------------------------------------------------|
|--------------------------------------------------------|
|--------------------------------------------------------|
|--------------------------------------------------------|
|
|x2

[0:54]-[1:14]
|--14~----11~--|
|--15~----12~--|
|--14~----13~--|
|--------------|
|--------------|
|--------------|
|
|x3

Chorus
[1:23]-[1:51]
|----------------------------------------------------|
|--15-14-12-----12-----------------------------------|
|-----------14-----11---11------11-------------------|
|-------------------------14--14------11~------------|
|----------------------------------14~------14-9-12--|
|----------------------------------------------------|
|
|----------------------------------------------------|
|--15-14-12-----12-----------------------------------|
|-----------14-----11---11------11-------------------|
|-------------------------14--14------11~------11----|
|----------------------------------14~------14----14-|
|----------------------------------------------------|
|
|-----------14---------------------------------------|
|--15-14-12------------------------------------------|
|--------------14-13---11------11--------------------|
|------------------------14--14------11~-------------|
|---------------------------------14~-----14-9-12----|
|----------------------------------------------------|
|
|-----------14---------------------------------------|
|--15-14-12------------------------------------------|
|--------------14-13---11------11--------------------|
|------------------------14--14------11~---11--------|
|---------------------------------14~---------14-12--|
|----------------------------------------------------|
|
|x1

[2:17]-[2:26]
|--11~-----14-14~-------11~--|
|--12~--14----14~-------12~--|
|--13~--------13~-------13~--|
|----------------------------|
|----------------------------|
|----------------------------|
|
|x1


Repeat Chorus Line
[2:34]-[3:02]
[3:46]-[4:45]x2

Never Shake A Baby Chords – A Paper Cup Band

 Never shsake a baby A Paper Cup Band
First Tab, sorry if not accurate
Also wrote the lyrics based on listening to it so those might be wrong too
Listen to the song on youtube to get the strumming pattern

 E C#m G#m E G#m B E 
Oooooo-oooooo—oooooo---oooooo

Verse 1:
 E C#m E 
Your feather duster is broke
I’d think you’d write me an essay
 E C#m B             
About how you feel when you sing about the presence of rain
 B E 
It dissipates through the air

Verse 2 (Same as first):
You fold your hands at the tips
There’s nervousness in your breathing
Your symmetry is alive with a pull inside that forgives all but your will
Pre-Chorus:
 C#m B E 
You’ll never ever, ever have to cry
 C#m B A 
No you’ll never ever, ever have to cry

Chorus: same as intro

Oooooooo-oooooo-oooooo-ooooo 

Verse 3:
They sing for sake of the song
Their bodies huddled like lions
And then they altered the beat just by tapping their feet 
It’s the secrets that last

Verse 4: 
They cross the coast and go back
Directed by pure invision
Not deterred by the beast 
Tempted to say the least
It’s the facts that pressed
You’ll never ever, ever have to cry
No you’ll never ever, ever have to cry
Oooooo—oooooooooo----ooooooo-ooooo---ooo—oooooo

Dont Let Daddy Kiss Me Chords – Motorhead

 Em 
Little girl sleeping in dreams of peace, 
Mommy's been gone a long time,
 Am 
Daddy comes home and she still sleeps, 
                                               Em 
Waiting for the world's worst crime.

     Am 
And he comes up the stairs like he always does,
                             Em 
And he never turns on the light,
     Am 
And she's wide awake, scared to death,
     C 
She smells his lust and she smells his sweat
     Am 
Curled in a ball she holds her breath
 G 
Praying to a God that she's never met


Chorus:
 Em D Am 
Don't let daddy kiss me,
 Em D C           
Don't let daddy kiss me
         Em 
Good night


 Em 
Little girl lies by her daddy's side
 Em 
And she listens to him breathe
 Em     
She knows there's something awful wrong
 Em     
That she's far too young to see
 Em Am 
And she knows she can't tell anyone
                            Em 
She's so full of guilt and shame,
 Am 
And if she tells she'll be all alone
        C 
They'd steal her daddy and they'd steal her home
     Am 
And it's not so bad when daddy leaves her alone
 C 
Praying to her God with his heart of stone


 Em D Am 
Don't let daddy kiss me,
 Em D C           
Don't let daddy kiss me
         Em 
Good night

 Em 
And daddy lies by his daughter's side, 
     Em 
And he sleeps both deep and well
    Em (upstroke)
No nightmares come to him tonight, 
 Em 
Though his daughter lives in hell



         Am 
For his seed is sown where it should not be
                                 Em 
And the beast in his mind don't care
         Am 
And the only sounds are the tears that fall

 F C 
Little girl turns her face to the wall
 Am 
She knows that no one hears her call,
 C 
But it seems like God hears nothing at all



 Em D Am 
Don't let daddy kiss me,
 Em D Am 
Don't let daddy kiss me,
 Em D C           
Don't let daddy kiss me
(fill 2)        
           Good night
Oh dear

Run Chords – Gnarls Barkley

 Gnarls Barkley - Run
 
Fret7: 0 – 7 – 7 – 6 – 0 – 0 

Intro:  E  –  G  –  A  –  C E 
Yeah its still the same
 G 
Can’t you feel the pain
 A 
When the needle hits the vein
 G 
Ain’t nothing like the real thing
 E 
I’ve seen it once before
 E 
And oh it’s something else
Good god

 E 
Cool breeze come on in
 G 
Sunshine come on down
 A 
You have the tear drops of a clown
 G 
Circus is coming to town
 E 
All I’m saying is sometimes I’m more scared of myself

 E 
You better
 E  => fret7
move
E => fret 7
I said
move

 E 
Runaway
 G 
Runaway
 A 
Run children
 G 
Run for your life
 E 
Runaway
 G 
Runaway
 A 
Run children
 G 
Oooooh
 E  
Here it comes
I said run
Alright (enkel in eerste refrein)



 E 
Yeah I’m on the run
 G 
See where I’m coming from
 A 
When you see me coming run
 G 
Before you see what I’m running from
 E 
No time for question asking time is passing by, alright

 E 
You can’t win child
 G 
We’ve all tried to
 A 
You’ve been lied to
 G 
It’s all ready inside you
 E 
Either you run right now Or you best get ready to die

 E  => fret7
You better
 E  =>fret7
move
E => fret 7
I said
move

Refrein

 E 
Hurry little children
 C 
Run this way
 A C E      
I have got a beast at bay

 E G 
Promise me when the chance comes
 A G 
You'll run as fast as you can
 E G 
Don't you dare look backwards
 A G    
Run as fast as you can
 E E G 
La la la la la la
 A G 
la La la la
 E 
La la la la la la  (2x)

Refrein

Fire In the Sky – Zippy Josh Chords

Zippy Josh
Fire in the sky
Stupidville
Tabbed: Pige Conlon

INTRO:
Bm, G, A

After you strum the G and before you strum the A, you can the part of
the bass notes during the intro and verse:

D--0-------
A----4--0--

VERSE 1:

Bm          G         A
Just wake’n up as darkness falls around me
Bm         G              A
Somebody's pounding on my door
Bm       G          A 
Save yourself he screams the end is here
Bm                  G      A
My shoes are melted to the floor
Bm     G          A
I look around but still I cannot see
Bm       G           A
Smoke is burning in my eyes
Bm        G        A
But I can hear the world crying for help
Bm          G      A
And it aint no surprise

CHORUS:

G         A                 Bm
And now I know that it aint right
G           A           Bm
There was a fire in the sky tonight
Bm  G  A 
And it's still there
Bm  G  A 
And it's still there 
Bm  G  A 
And it's still there

VERSE 2:

Bm            G     A
So I asked my self, could this be the end
Bm        G            A
Or just another dream my friend
Bm     G       A
People running screaming the streets
Bm                     G         A
They've seen what they don't believe in
Bm         G        A
It was the sky that opened up its mouth
Bm      G           A
And the white horse appeared
Bm        G       A
So when I saw him riding upon it
Bm           G        A
I could only stand in fear

CHORUS

BRIDGE:

G         A                 Bm
And now I know that it will never be the same
G              A            Bm
He brought the fire when he came
Bm G A
When he came
Bm G A
When he came
Bm G A  
When he came

VERSE 3:

Bm         G      A
Now listen up the final hour's come
Bm       G                 A
Your judgments standing at the door
Bm         G           A
The God of heaven will wipe away your tears
Bm                  G       A
And the pain you'll feel no more
Bm      G         A
But the beast and ruler of this world
Bm      G        A
He will lead you astray
Bm     G        A
With a mark and empty deception
Bm              G    A
Don't sign your life away

CHORUS

that is all.

Way I Am – The – Jennifer Knapp Chords

The Way I Am  - The Way I Am
Written By: Jennifer Knapp  2001 Gotee Music/West Hudson Music(Bmi)-Admin.
By Emi Cmp
Tabbed by: Paulfalgout@decafcoffeeshop.com

Capo 2
          E      G     A2  G-F#  
Intro   -
        -
        --1------0-----2----------------------------------------
        --2------0-----2----------------------------------------
        --2------2-----0----------------------------------------
        --0------3-----0---3--2---------------------------------



E  G  A2  G-F#-E  (X2)

E           G              A2 
Blind these eyes who never tried
                  E
To lose temptation
E      G        A2
I'm so scared, where's the hesitation?
G                         A2
You so easily proved that You could save a man
G         A2
I am that man

(Chorus)
E                    G
It's better off this way
       A2
To be deaf, dumb and lame
E                    G     A2  G-F#
Than to be the way I am, I am
E                     G
It's better off this way
         A2
Than be groping for the flame
E                    G      A2
Than to be the way I am, I am

E  G  A2  G-F#-E  (X2)

E           G              A2 
Still this tongue for I am hung
                     E
By this wicked notion
E          G      A2       
Tame the beast, release

The noose I've woven
G                 A2
O, wasted tears dripping from my tongue
         G     A2  
Well I'm hung, hung

(Chorus)
G A  (4x string solo)

E           G              A2 
Crooked path you never asked
                     G-F#-E
You just left me there
E      G             A2
And I deal with the aftermath

And you don't even care
G                   A2                          G     A2
O, crooked feet you nimbly meet the place of my fears

(Chorus)

One Hundred Sleepless Nights Chords – Pierce The Veil

 (intro)
 F C Am C F 
I can't wait to see your brilliant face
 C Am 
Light up the room around the pillowcase
                 F 
She said, "Can you come over to my LA place
 C A 
I got something to tell you and it just can't wait"
 F 
When I showed up you held the door in tears
 C Am 
Sat on the couch under the chandeliers.
                         F 
You said you're having a baby and before I could cry
              C A 
You're leaving me just when I thought you were mine.

      F C 
But I don't see your face,
                                          Am 
Taken by the one hearted race home now,
         F 
But, don't tell your other man
              C Am 
I got a hell of a plan

 F C 
Failing lights amass one hundred sleepless nights
                         Am 
And I might be holding on too tight
                        F C Am 
But there is a beast in my heart and he won't let you leave alive

            F 
Nightmares

No longer wait for sleep
 C Am 
Crawl on the ground on both your hands and knees
                   F 
Just like a, lion and you're the queen of the pride
                      C A 
And we will feast together till the bones are dry.

     F C 
But I don't see your face.
                                          Am 
Taken by the one hearted race home now,
                                         C 
But don't tell your other man.
                   Am 
He's not a part of the plan

   F C 
Failing lights amass one hundred sleepless nights
                           Am 
And I might be holding on too tight
                        F C Am 
But there is a beast in my heart and he won't let you leave alive

 F C 
Do you still love me? I am dying to know.
                        Am 
Or did you forget what we shared?
              F C Am 
Out of sight out of mind I was never even there

 F C 
Failing lights, amass one hundred sleepless nights
                            Am 
And I might be holding on too tight
                          F C Am 
But there is a beast in my heart and he won't let you leave alive

 F C Am C  (x2)

 F 
This is the price you'll pay
 C Am 
Thoughts in your head that will never die.

 F C Am C  (x2)

 F 
So don't you forget what we had
 C Am 
It's like I was never even there.

 F C Am C F 
Go!

Demons Chords – Imagine Dragons V6

 Artist:  Imagine Dragons
Song:  Demons


-----------------------------------------------------------------------------
                        Demons by Imagine Dragons:
-----------------------------------------------------------------------------

Capo: 3rd fret
Tuning: Standard EADGBe

The strumming pattern to this song is pretty simple. It's just mostly down, 
strums.  If you really get into it,there
are some up strums in the chorus  You honestly just have to feel the song, is 
should come a bit natural to you.  All 
in all this song is pretty simple, but still fun to play.


Chords used:

     C G Am F 
e|--0---3---0----1---------------------------------------------------------------|
B|--1---3---1----1---------------------------------------------------------------|
G|--0---0---2----2---------------------------------------------------------------|
D|--2---0---2----3---------------------------------------------------------------|
A|--3---2---0----x---------------------------------------------------------------|
E|--x---3---x----x---------------------------------------------------------------|


         C  
When the days are cold
         G   
And the cards all fold
        Am 
And the saints we see
         F      
Are all made of gold
     

          C 
When your dreams all fail
        G 
And the ones we hail
        Am 
Are the worst of all
         F C 
And the blood's run stale


                       G 
I want to hide the truth
                   Am 
I want to shelter you
                    F 
But with the beast inside
                       C 
There's nowhere we can hide


                   G 
No matter what we breed
                      Am 
We still are made of greed
                    F 
This is my kingdom come
                    C 
This is my kingdom come


                 G 
When you feel my heat
             Am 
Look into my eyes
                      F 
It's where my demons hide
                      C 
It's where my demons hide
               G 
Don't get too close
          Am 
It's dark inside
                     F 
It's where my demons hide
                      C 
It's where my demons hide



When the curtain's call
        G 
Is the last of all
         Am 
When the lights fade out
         F 
All the sinners crawl


         C 
So they dug your grave
         G 
And the masquerade
           Am 
Will come calling out
        F 
At the mess you made


 C G 
Don't want to let you down
               Am 
But I am hell bound
                        F 
Though this is all for you
                        C 
Don't want to hide the truth


                   G 
No matter what we breed
                      Am 
We still are made of greed
                    F 
This is my kingdom come
                    C 
This is my kingdom come


                 G 
When you feel my heat
             Am 
Look into my eyes
                      F 
It's where my demons hide
                      C 
It's where my demons hide
               G 
Don't get too close
          Am 
It's dark inside
                     F 
It's where my demons hide
                      C 
It's where my demons hide


  

In The Light Chords – Irene Skylakaki

 Am E 
Lately I've been sitting all alone
                         G 
And my mind has frozen time
          F 
But the clock is ticking


Tell me would you want to kiss me 
Hold me in your arms and squeeze me
If you knew I was a beast



 C G 
But in the light
                               Am 
Everything looks beautiful and bright 
                            F 
I can see no clouds up in the sky

Your sparkling eyes 
Make it hard to see behind the lies
Why do I put up with this disguise



 Am E 
Lately I've been sitting in the dark
                        G 
And our moments at the park
         F 
Seem so far and distant

What You Are Tabs by Dave Matthews Band V3

 chords i used for my intro:
e--0--0--|
b--0--7--|
g--6--6--|
d--7--4--|
a--x--0--|
D--4--0--|


 <mr> MAIN RIFF {between verse lines + end verse "realise, realise what you are"}:
   1 2 3 4 5 6 7 8
e------------------|
b-----(7)----------|
g------6-4---------|
d--4---------7-6---|
a------------------|
D------------------|

 VERSE, 1st half {"i walk into this room now..."}:
e--x--
b--x--
g--6--
d-(4)-
a-(4)-
D--4--

 VERSE, 2nd half {"...than i have to give away"}:
   1 2 3 4 5 6 7 8 1 2 3 4 5 6 7 8
e--x-----x-----x---x-----x---x---x-|
b--x-----x-----x---x-----x---x---x-|
g--7-----7-----7---6-----4---x---x-|
d--x-----x-----x---x-----x---7---6-|
a--5-----5-----5---4-----2---x---x-|
D--0-----0-----0---x-----x---7---6-|

 CHORUS, 1st half {"what you've become, just as.."}:
   1 2 3 4 5 6 7 8 1 2 3 4 5 6 7 8
e--x-----x-----x---x----(0)--------|
b--x-----x-----x---x-----5---------|
g--9-----9-----9---9-----5---------|
d--7-----7-----7---7----(3)--------|
a--x-----x-----x---x----(3)--------|
D--7-----7-----7---5-----3---------|

 CHORUS, 2nd half {"..i am, but are you and i so alike?"}
   1 2 3 4 5 6 7 8 1 2 3 4 5 6 7 8
e--0-----0-----0---x-----x---x-----|
b--3-----3-----3---x-----x---x-----|
g--2-----2-----2---5-----x---x-----|
d--3-----3-----3---x-----2---6-----|
a--0-----0-----0---3-----x---x-----|
D--0-----0-----0---x-----2---6-----|

<ref> REFRAIN {"what you are is is the beast in a lover's arms"}
   1 & 2 & 3 & 4 & 1 & 2 & 3 & 4 & 1 & 2 & 3 & 4 & 1 & 2 & 3 & 4 &
e-(2)-----(2)---(2)--------0-0-0-0----(0)-(0)----------------------|
b--2-------2-----2---------0-0-0-0-----7---7-----------------------|
g--3-------3-----3---------1-1-1-1-----8---8-----------------------|
d--4-------4-----4---------2-2-2-2-----9---9-----------------------|
a--x-------x-----x---------x-x-x-x-----x---x-----------------------|
D--4-------4-----4---------2-2-2-2-----9---9-----------------------|


--song--

<mr>x4


walk into this room, oh, all eyes on me now
     
but i do not know the people inside
<mr>x2

look straight through me these eyes, seeking more wisdom than I

have to give away
         <mr>
realize, realize what you are


what you've become
        
just as i have
                 
are you and I so alike?

i don't hear you
       
just as I am
                           
afraid if we dance we might die

mock the world
         
lips they say "whyyyy?"
                       
don't you know when you give life
                         <mr>
then you become what you are
<mr>
the sea is unsparing
we're all drifting away

away from you
i pray for you
<mr>x2
now

hoping to god on high
is like clinging to straws
     
while drowning
        <mr>
realize, realize what you are...


what you've become
        
just as i have
                 
are you and I so alike?
i don't hear you
         
just as I am               
afraid if we dance we might die

mock the world
         
lips they say white liiiiies
                        
don't trust me, love yourself

then you'll become what you are

<ref>x4
what you are is the beast in a lover's arms
what you are is the devil in the sweet, sweet kiss
what you are is missing a piece
what you are is a puzzle to me


what you've become
         
just as i have
                 
are you and I so alike?

i don't hear you
         
just as I am               
afraid if we dance we might die
mock the world
         
lips they say liiiiies
                          
don't you know, when you give life
then you become what you are

<ref>
what you are is a puzzle
__________________________________________________________________________________

(lyrics and chord change timings taken from
 dave's acoustic version at http://www.youtube.com/watch?v=NffmPn_3BxE )</ref></ref></mr></mr></mr></mr></mr></mr></mr></ref></mr>

Garden Tabs by Needtobreathe V3

 Nico Vega- Beast (Acoustic Version)
Standard Tuning

Key- p= Pull down, h= Hammer, ^= Bend up

Chorus (x3)
e|-------------------------------------------------------------------|
B|---3-3---3-3-3p1----3-3---3-1-------3-3---3-3-3p1-----1^--------1--|
G|----------------2-------------2------------------2-0h2---2---0h2--2|
D|-------------------------------------------------------------------|
A|-0----------------0---------------0----------------0---------------|
E|-------------------------------------------------------------------|

Solo 1
|-----------------------------------------------------------------------|
|---3-3p1--1---------3-3p1--------------3-3p1---------1---3-3-1--------1|
|--------2---2-2-2--------2-2-2-0h2-2--------2-2-2-0h2----------2-2-0h2-|
|-----------------------------------------------------------------------|
|-0----------------0------------------0-----------------0---------------|
|-----------------------------------------------------------------------|

Return to Chorus but (x2)

Solo 2
|----------------------------------------------------------------------|
|------1------------------1--------------1------------------1----------|
|---0h2--2-2-2-2p0-0---0h2-2----------0h2--2-2-2-2po-0---0h2--2--------|
|----------------------------0-0-0------------------------------0-0-0--|
|-0------------------0-------------3-0-----------------0--------------3|
|----------------------------------------------------------------------|

Return to chorus (x3)

Play A-string every 8 beats as song ends

Demons Tabs by Imagine Dragons V3

 Capo on Fret 3

e|-----------------------------------|
B|--0-------0-------0-------0--------|
G|----5---5---5---5---5---5---5---5--|
D|------5-------5-------5-------5----|
A|-(3)-------------------------------|
E|-----------------(3)---------------|

e|-----------------------------------|
B|--0-------0-------0-------0--------|
G|----5---5---5---5---5---5---5---0--|
D|------7-------7-------7-------7----|
A|-(0)-------------(8)---------------|
E|-----------------------------------|

Repeated through the song. 
I do chords Am G C F in the chorus.

When the days are cold
And the cards all fold
And the saints we see
Are all made of gold
When your dreams all fail
And the ones we hail
Are the worst of all
And the blood's run stale

I want to hide the truth
I want to shelter you
But with the beast inside
There's nowhere we can hide
No matter what we breed
We still are made of greed
This is my kingdom come
This is my kingdom come

When you feel my heat
Look into my eyes
It's where my demons hide
It's where my demons hide

Don't get too close
It's dark inside
It's where my demons hide
It's where my demons hide

When the curtain's call
Is the last of all
When the lights fade out
All the sinners crawl
So they dug your grave
And the masquerade
Will come calling out
At the mess you made

Don't want to let you down
But I am hell bound
Though this is all for you
Don't want to hide the truth
No matter what we breed
We still are made of greed
This is my kingdom come
This is my kingdom come

When you feel my heat
Look into my eyes
It's where my demons hide
It's where my demons hide

Don't get too close
It's dark inside
It's where my demons hide
It's where my demons hide

They say it's what you make
I say it's up to fate
It's woven in my soul
I need to let you go
Your eyes, they shine so bright
I want to save their light
I can't escape this now
Unless you show me how

When you feel my heat
Look into my eyes
It's where my demons hide
It's where my demons hide

Don't get too close
It's dark inside
It's where my demons hide
It's where my demons hide

Demons Chords – Imagine Dragons V7

 Eb 
When the days are cold
                 Bb 
And the cards all fold
          Cm 
And the saints we see
           Ab 
Are all made of gold


            Eb 
When your dreams all fail
             Bb 
And the ones we hail
          Cm 
Are the worst of all
          Ab 
And the blood's run stale

 Eb Bb 
   I want to hide the truth
                    Cm       
I want to shelter you
                      Ab 
But with the beast inside

There’s nowhere we can hide

 Eb Bb 
  No matter what we breed
                         Cm 
We still are made of greed
                      Ab 
This is my kingdom come
                                  Eb 
This is my kingdom come

[CHORUS]

 Eb Bb 
   When you feel my heat
                Cm 
Look into my eyes
                        Ab 
It’s where my demons hide
                                    Eb 
It’s where my demons hide
 Eb Bb 
  Don’t get too close
               Cm 
It’s dark inside
                         Ab 
It’s where my demons hide
                                     Eb 
It’s where my demons hide

[CHORUS]

                  Eb 
When the curtain’s call
             Bb 
Is the last of all
             Cm 
When the lights fade out
           Ab 
All the sinners crawl

                 Eb 
So they dug your grave
                 Bb 
And the masquerade
              Cm 
Will come calling out
          Ab 
At the mess you made

 Eb Bb 
  Don’t want to let you down
                  Cm 
But I am hell bound
                          Ab 
Though this is all for you
                                         Eb 
Don’t want to hide the truth

 Eb Bb 
No matter what we breed
                         Cm 
We still are made of greed
                      Ab 
This is my kingdom come
                                  Eb 
This is my kingdom come

[CHORUS]

 Eb Bb 
  They say it's what you make
                    Cm 
I say it's up to fate
                    Ab 
It's woven in my soul
                                 Eb 
I need to let you go

 Eb Bb 
Your eyes, they shine so bright
                        Cm 
I want to save their light
                       Ab 
I can't escape this now
                                   Eb 
Unless you show me how

[CHORUS]

Its Not Just Make Believe Chords by Kari Kimmel

Tuning: Standard (EADGBe)
Capo: None

Chords used:
G: 320003
Am7: xx2010
C: x32010
D: xxx232
B: xx4442
Em: x22000

 G  Am7  C        D    G
         Hey yeah ohhh yeah 
 Am7         C D
ohh yeah eah yeah
G
   I thought that I was to old 
Am7
to believe in fairy tales
C
  But there's a letter from you 
D
waitin' when I check my mail
G
  I start to shakin' like a 
Am7
7 on the Richter scale when 
C
you say you
D
love me
B
Look in the 
Am7 
mirror and 
B
I'm not who I 
Am7
used to be at
C
all
D
  It's coming clearer 
       G
I'm Cinderella at the ball I'm 
Am7
Alice growing 10 feet tall 
       C
It's not just 
D         
make believe
G
Here comes the prince's kiss,
        Am7
 I'm positive the slipper fits
       C              D            G, Am7, C, D
It's not just make believe
G
It started out like just 
  Am7
another ordinary day 
C
Now suddenly my life is 
D
different in every way
G
The sun is brighter and the 
Am7
happiness is here to stay
       C            D
It's like I'm dreaming
B
Thank you for 
Am7
showing me that 
B
true love doesn't
Am7                   C
 hurt when you fall
D
You got me glowing 
       G
I'm Cinderella at the ball I'm 
Am7
Alice growing 10 feet tall 
       C            D
It's not just make believe
G
   Here comes the prince's kiss 
       Am7
I'm positive the slipper fits it's 
C             D
not just make believe
Em
Whenever 
Am7
wherever 
C
Forever 
D
I'll be with you 
Em
      We have it 
Am7           C     D 
it's magic ohhhh
G, Am7, C, D

B  
Look in the 
Am7
mirror and 
B
I'm not who I 
Am7
used to be at 
C  D
all

It's coming clearer
       G
I'm Cinderella at the ball I'm
Am7 
Alice growing 10 feet tall
       C
It's not just 
D
make believe
G
It's finally happening, 
   Am7
I feel so good I gotta sing
       C
It's not just 
D
make believe
       G
I'm Ariel above the sea, 
       Am7
I'm Beauty dancin' with the Beast
       C
It's not just 
D
make believe
G
Here comes the prince's kiss
       Am7 
I'm positive the slipper fits
       C
It's not just 
D              G
make believe
Am7   C      D
Ohhh yeah 
G, Am7

       C
It's not just 
D              G  Am7  C
make believe 
D                   G       Am7  C      D  G Am7
Ohhh yeah yeah ohhh yeah
       C             D             G
It's not just make believe

Imagine Dragons – Demons lyrics

When the days are cold
And the cards all fold
And the saints we see
Are all made of gold

When your dreams all fail
And the ones we hail
Are the worst of all
And the blood’s run stale

I want to hide the truth
I want to shelter you
But with the beast inside
There’s nowhere we can hide

No matter what we breed
We still are made of greed
This is my kingdom come
This is my kingdom come

When you feel my heat
Look into my eyes
It’s where my demons hide
It’s where my demons hide
Don’t get to close
It’s dark inside
It’s where my demons hide
It’s where my demons hide

When the curtain’s call
Is the last of all
When the lights fade out
All the sinners crawl

So they dug your grave
And the masquerade
Will come calling out
At the mess you made

Don’t want to let you down
But I am hell bound
Though this is all for you
Don’t want to hide the truth

No matter what we breed
We still are made of greed
This is my kingdom come
This is my kingdom come