Tag: boyd

The Last Goodbye Tabs – Billy Boyd

 -------------------------------------------------------------------------------
                         The Last Goodbye
-------------------------------------------------------------------------------
:Ange_

Okay, so its not the actual FULL song but its pretty darn close. Basically the rest is just different 
variations of the same melody.

Tuning: Standard
Capo 5th fret

e|---------------------------------------------------------------------------|
B|---------------------------------------------------------------------------|
G|---0---0--2--4--2--2--0--4---0--2--4--7--4--2--0---0-----------------------|
D|---------------------------------------------------------------------------|
A|---------------------------------------------------------------------------|
E|---------------------------------------------------------------------------|

e|--------------------------------------3--3--3--3--7--5--3--3---------------|
B|-----------------------------3--5--3---------------------------------------|
G|--0--2--4--7--4--2--0--2--4------------------------------------------------|
D|---------------------------------------------------------------------------|
A|---------------------------------------------------------------------------|
E|---------------------------------------------------------------------------|

e|---0--0------0--3------3--3-----------0--0--0--0--3---5--------------------|
B|----------3------------------0--3--3---------------------------------------|
G|---------------------------------------------------------------------------|
D|---------------------------------------------------------------------------|
A|---------------------------------------------------------------------------|
E|---------------------------------------------------------------------------|

e|----7---5--3---7--8--7--5--------0------0--3--5-----7--5--3--0-------------|
B|---------------------------0--3------3-------------------------------------|
G|---------------------------------------------------------------------------|
D|---------------------------------------------------------------------------|
A|---------------------------------------------------------------------------|
E|---------------------------------------------------------------------------|

e|--3--3--2--3-----------------------3--2------------0---0--3--5--7---5--3--0|
B|---------------0-0--3--5--3--0---------------0--3--------------------------|
G|-----------------------------2---------2-----------------------------------|
D|---------------------------------------------------------------------------|
A|---------------------------------------------------------------------------|
E|---------------------------------------------------------------------------|

e|--3--3--2--3--------------5--5--3--53--3--5--3--7--5--5-5--3--0------------|
B|--------------0--0--3--5---------------------------------------------------|
G|---------------------------------------------------------------------------|
D|---------------------------------------------------------------------------|
A|---------------------------------------------------------------------------|
E|---------------------------------------------------------------------------|

e|--7--8--7--7--5--0--0--3--0--7--0--3--0--7--7--8--7--7--7--5---------------|
B|---------------------------------------------------------------------------|
G|---------------------------------------------------------------------------|
D|---------------------------------------------------------------------------|
A|---------------------------------------------------------------------------|
E|---------------------------------------------------------------------------|

e|-----------------------------------------------0--3--3--3--7--5--3--3--3---|
B|--0--3--5--3--3-----------------------0--3--5------------------------------|
G|-----------------0--2--4--0--0--0--2---------------------------------------|
D|------------------------------------------

The Last Goodbye chords – Billy Boyd V5

 Billy Boyd plays this song with Capo on 5th, see movie clip of the song

Standard tuning – Capo 5


 G  
I saw the light fade from the sky

On the wind I heard a sigh
            Em C Em C 
As the snowflakes covered my fallen brothers
         G C G 
I will say this last goodbye
 
 
 Em C 
Night is now falling
 G D 
So ends this day
       Em C 
The road is now calling
       G D 
And I must away
       Em C 
Over hill and under tree
                     Am C      
Through lands where never light is shined
            G 
By silver streams
           C D 
That run down to the sea
 
 
        Em C  
Under cloud, beneath the stars
       Am C 
Over snow and winters moor
            G C D Am 
I turn it last to paths that lead home
                       C Em 
And though where the road then takes me
            D Am C 
I cannot tell, we came all this way
                   Em 
But now comes the day
             D  
To bid you farewell
 
 

        G C G 
Many places I have been
        G C G 
Many sorrows I have seen
       Em C 
But I don't regret
          Em C 
Nor will I forget
          G C G 
All that took that road with me
 
 
 Em C 
Night is now falling
 G D 
So ends this day
       Em C 
The road is now calling
       G D 
And I must away
       Em C 
Over hill and under tree
                     Am C      
Through lands where never light is shined
            G 
By silver streams
           C D 
That run down to the sea
 
                Em C 
Towards these memories I will hold
           Am C 
With your blessing I will go
            G C D Am 
To turn at last to paths that lead home
 
                      C Em 
And though where the road then takes me
          D Am C 
I cannot tell, we came all this way
                   Em 
But now comes the day
            D  
To bid you farewell
 
 
 C Em C Em C Em C G 
I'll bid you all a very fond farewell