Tag: Bridge

Id Build A Bridge chords – Glen Campbell

 I'd Build A Bridge
Glen Campbell

Intro   G Am C Bm Am G Bm G C D G 

Verse 1

      Bm C D G 
As I sift through the ashes
            Bm C D G 
of bridges burned and broken dreams
            D Em D 
If I could only find the pieces
             C Am G F#m Em 
I'd build a bridge that would bring you back to me
     D C D G Bm G C D G 
I'd build a bridge that would bring you back to me

Verse 2

            Bm G C D G    
If I could take the past and change it
           Bm G C D G 
to what I wanted it to be
         Bm Em D 
I would mold and I would shape it
        C D G F#m Em  
into a bridge that would bring you back to me
     D C D G D   
I'd build a bridge that would bring you back to me

Chorus 1

 G Bm Em G 
Oh, I'd build a bridge made of love
           C G 
A love so strong that no one
            Am D 
could ever shake it
 G Bm Em D        
Oh, I'd build a bridge made of stone
             C Bm 
and I would stand and defend it
     Am Bm C D 
And never let it fall

Verse 3

 G Bm C D G 
   Though the walls may be crumbled
           Bm C D G 
the cornerstone is planted deep
             Bm Em D 
and it will gladly hold the pieces
        C D G F#m Em 
to the bridge that would bring you back to me
      G C D G D  
I'll build a bridge that will bring you back to me

Chorus 2

 G Bm Em G   
Oh, I'll build a bridge made of love
           C Bm 
a love so strong that no one
            Am C D    
could ever shake it, yeah
 G Bm Em G 
Oh, I'll build a bridge made of stone
            C Bm G C D 
and I will stand and defend  itttt, yeah
 G Bm Em D 
Oh, I'll build a bridge made of love
            C Bm 
a love so strong that no one
    G Am D 
could ever shake it, yeah
 G Bm Em D 
Oh, I'll build a bridge made of stone
            C G Am D G F#m D Em D C G Am 
and I will stand and I'll defend it, yeah 

flyinglibra51
God Bless Glen Travis Campbell

Warner Mack – The Bridge Washed Out chords

 The bridge washed out - Warner Mack

Composers: Jimmy Louis, Sandra Smith, Mart Melshee
Label: Decca

#1 country hit in 1965

Also recorded by George Jones and Ricky Nelson


Intro:
 A D 
 Bridge washed out and I can't swim
 D A E7 A 
And my baby's on the other side

#1:
 A 
When I awoke this mornin' the rain was a-pourin' down
 A D A 
I was gonna wed a little river girl just over the bridge across town
 A D 
Now I'm a-runnin' up and down the river and my nerves are drivin' me wild
 D A D 
Because the bridge washed out and I can't swim
 D A E7 A       
And my baby's on the other side

#2:
 A   
Rain, oh rain stop a fallin', dark clouds hurry from the sky
 A D A 
The preacher and my bride's a waitin' and my weddin' bells are startin' to chime
 A D 
I can't kiss and hold her and it's a-drivin' me outta my mind
 D A D 
'cause the bridge washed out and I can't swim
 D A E7 A       
And my baby's on the other side


Instrumental bridge:

 A D A 

#3:
 A 
And now I've got one foot in the water but one foot's solid on the ground
 A D A 
I'd try to swim that ragin' old river but I know if I try I'll drown
 A D 
There's not a boat around me they've all gone out with the tide
 D A D 
And the bridge washed out and I can't swim
 D A E7 A       
And my baby's on the other side


#4:

 A   
Rain, oh rain stop a fallin', dark clouds hurry from the sky
 A D A 
The preacher and my bride's a waitin' and my weddin' bells are startin' to chime
 A D 
I can't kiss and hold her and it's a-drivin' me outta my mind
 D A D 
'cause the bridge washed out and I can't swim
 D A E7 A       
And my baby's on the other side



Outro
 A D 
Yeah the bridge washed out and I can't swim
 D A E7 A   
And my baby's on the other side

Hard To Hold Tabs by Rac

 Rad tuneage...99% correct! Comment and rate, or just jam...enjoy!

Artist: RAC feat. Tegan and Sara
Song: Hard to Hold      
 Strangers, Part I
Tuning: Standard

Intro

e |--5------4-----5--------|
B |--5------5-----7--------|
G |--6------6-----6--------|
D |--7------6-----7--------|
A |--7------4-----5--------|    
E |--5------x-----x--------|

Verse 1

e |-5----7----5----5--------|
B |-7----9----5----7--------|
G |-6----9----6----6--------|
D |-7----9----7----7--------|
A |-5----7----7----5--------|   
E |-x----x----5----x--------|

I've got to liberate first
The list of fiction
My mouth has made first
Eliminate the distance between us

I've got to implicate first
The list of lies
My mind has made first
Eliminate the distance between us

Pre - Chorus

e |-5----7----5----5--------|
B |-7----9----5----7--------|
G |-6----9----6----6--------|
D |-7----9----7----7--------|
A |-5----7----7----5--------|   
E |-x----x----5----x--------|

Truth be told
You're hard to hold
You've gotta want it
You've gotta want it right now

Chorus

e |--5---5---4-----5--------|
B |--5---7---5-----7--------|
G |--6---6---6-----6--------|
D |--7---7---6-----7--------|
A |--7---5---4-----5--------|   
E |--5---x---x-----x--------|


If you don't want me
Baby, you don't deserve me
You've got to want it right now

If you don't want me
Baby, you don't deserve me
I've got to want it right now

Verse 2

You've got to cooperate first
List the wounds
That caused me pain first
Eliminate the distance between us

You've got to illustrate first
List the damage
That caused me pain first
Eliminate the distance between us

Pre - Chorus

Chorus

Bridge

e |--4-------5----4---5-----|
B |--5-------7----5---7-----|
G |--6-------6----6---6-----|
D |--6-------7----6---7-----|
A |--4-------5----4---5-----|   
E |--x-------x----x---x-----|


I can feel the difference
That a little distance
In between us starts to show

I can tell what you want
If you really want to know
I can take you to the top
If you really want to go

If you just say yes
If you stop saying no
If you just attest
That you want me so

Chorus

How Might I Live Tabs by Real Estate

 Real Estate 
How Might I Live
Atlas

A nice little tune off their new album.  Words and music by Alex Bleeker.

/ = hammer on 
\ = pull off
Here's the intro riff (and the riff played throughout the song):

e|------------------------------------|-------------------------|
B|------------------------------------|-------------------------|
G|------------------------------------|-------------------------|
D|-9--7--5--2---0/2/5---2\0-----2\0---|-9--7--5--2---0/2---5--9-|
A|------------------------------------|-------------------------|
E|---------------------------3------3-|-------------------------|

e|----------------------------|--0--|-------------------------|
B|----------------------------|--0--|-------------------------|
G|----------------------------|--0--|-------------------------|
D|-9--7--5--2---0/2/5---2\0---|--2--|-9--7---5--7-5--7--5-7-9-|
A|----------------------------|--3--|-------------------------|
E|--------------------------3-|--0--|-------------------------|

(G and C are strummed throughout the intro and verse)

G           C              G    G           C               G
How might I live to betray you, how might I live to see the day?

G           C                  G             Cmaj7
How might I live to say you're not the one I love

C           D               G
How might I live to see the day?

That's basically it.  C and G are the chords strummed during the bridge.

Glass House Tabs by Blackfield V2

 -----------------------------------------------------------------------------
                                          Artist - Blackfield
                                         *********************
                                          Song - Glass House 
                                         ********************
                                       Album - Welcome To My DNA 
                                      ***************************
                                          - Ayreon77
                                        **********************  
                    
-----------------------------------------------------------------------------
       There are 2 versions of this song on here,
         and i think that they both sound wrong
            Hopefully this is an improvment.

VERSE 1
********
D     
Goodbye old friend, my paranoid
      G  
We'll meet again someday
F#m             B
Life is running out
  D           G                    Em  
I guess I had enough, I need to go now


----------------------------------------------
Small Solo
***********
   Em            Cm Bb   Em            Cm Bb
e|---------br----------|---------br----------|
B|-12-----12-----------|-12-----12-----------|
G|------------12-12-10-|------------12-12-10-|
D|---------------------|---------------------|
A|---------------------|---------------------|
E|---------------------|---------------------|


----------------------------------------------
VERSE 2
********
  D   
I used to live in a house of glass
      G
Where no one comes or goes
F#m           Bb         
Watching life outside
  D               
I used to stand behind the door
    G 
And hope the wind won't blow
    F#m           B
And mess my fears around
   D                  G                      Em 
It took me so long to find out where they're hiding.


----------------------------------------------
Small Solo
***********
   Em            Cm Bb   Em            Cm Bb
e|---------br----------|---------br----------|
B|-12-----12-----------|-12-----12-----------|
G|------------12-12-10-|------------12-12-10-|
D|---------------------|---------------------|
A|---------------------|---------------------|
E|---------------------|---------------------|


----------------------------------------------
BRIDGE
*******
Fm
Music like rain
     Cm    
Over my deepest feelings
           Bb
Are you're faking that
Fm
Music like rain
     Cm    
Over my deepest feelings
           Bb         
Are you're faking that
Cm     Em            
Faking that.


----------------------------------------------
Small Solo
***********
   Em            Cm Bb   Em            Cm Bb
e|---------br----------|---------br----------|
B|-12-----12-----------|-12-----12-----------|
G|------------12-12-10-|------------12-12-10-|
D|---------------------|---------------------|
A|---------------------|---------------------|
E|---------------------|---------------------|

D Cm G F#m Em B(X2)
  
----------------------------------------------
VERSE 3
********
D     
Goodbye old friend, my paranoid
      G  
We'll meet again someday
F#m             B
Life is running out
  D           G                    Em  
I guess I had enough, I need to go now


----------------------------------------------
Small Solo
***********
   Em            Cm Bb   Em            Cm Bb
e|---------br----------|---------br----------|
B|-12-----12-----------|-12-----12-----------|
G|------------12-12-10-|------------12-12-10-|
D|---------------------|---------------------|
A|---------------------|---------------------|
E|---------------------|---------------------|



ENJOY.......

Man Or Muppet Acoustic chords – Bret Mckenzie

 : Jim-BlenderBR
 - Please rate and send me your feedback - 

**Capo 3th**

Intro :  Em Em7  2x

 Em Em7 
I reflect on my reflection

                               Em 
And i ask myself the question

                              Em7 
Whats the right direction to go

             Em Em7 
I dont know


Chorus

        G Cadd9 
Am i a man or am i a muppet


If im a muppet then im a very manly muppet

        G Cadd9 
Am i a muppet or am i a man


If im a man that makes me a muppet of a man


Verse 2

 Em Em7 
I look into these eyes

                   Em 
And i dont recognize
 
                 Em7 
The one i see inside

                      Em Em7 
Its time for me to decide


Chorus

        G Cadd9 
Am i a man or am i a muppet


If im a muppet then im a very manly muppet

        G Cadd9 
Am i a muppet or am i a man


If im a man that makes me a muppet of a man


Bridge

Here i go again

 Cadd9 G 
I'm always running our of time

 Cadd9 G 
I think i made up my mind

 Em A 
Now i understand who i am


Chorus

           G 
I'm a man
    
       Cadd9 Em         
I'm a muppet

     A                     
I'm a muppet of a man

                       G 
I'm a very manly muppet

             Cadd9 Em 
I'm a muppety man
   
    A G 
This is what i am

Hey Mario Tabs by Patent Pending

 -------------------------------------------------------------------------------
                             HEY MARIO - Patent Pending
-------------------------------------------------------------------------------
: Joe Doul

Tuning: Standard

This is based on the brilliant tab by PlainOlBrod, but with the power chords tabbed out:

************************************

Verse
e|---------------------------------|
B|---------------------------------|
G|-----9-9-7---7-7-----9-9-7---7-7-|
D|-7---9-9-7---7-7-7---9-9-7---7-7-|
A|-7---7-7-5---5-5-7---7-7-5---5-5-|
E|-5---------------5---------------|


Chorus
e|---------------------------------------------------------------------------|
B|---------------------------------------------------------------------------|
G|-77----99------77----99-99---77----99----44444444-77777--------------------|
D|-77-77-99-44---77-77-99-99---77-77-99-44-44444444-77777--------------------|
A|-55-77-77-44---55-77-77-77---55-77-77-44-22222222-55555--------------------|
E|----55----22------55------------55----22-----------------------------------|


Verse
e|---------------------------------|
B|---------------------------------|
G|-----9-9-7---7-7-----9-9-7---7-7-|
D|-7---9-9-7---7-7-7---9-9-7---7-7-|
A|-7---7-7-5---5-5-7---7-7-5---5-5-|
E|-5---------------5---------------|


Chorus
e|---------------------------------------------------------------------------|
B|---------------------------------------------------------------------------|
G|-77----99------77----99-99---77----99----44444444-77777--------------------|
D|-77-77-99-44---77-77-99-99---77-77-99-44-44444444-77777--------------------|
A|-55-77-77-44---55-77-77-77---55-77-77-44-22222222-55555--------------------|
E|----55----22------55------------55----22-----------------------------------|


Bridge
e|---------------------------------------------------------------------------|
B|---------------------------------------------------------------------------|
G|----77-99-99------77-99-99------77-99------44444444-77777------------------|
D|-77-77-99-99---77-77-99-99---77-77-99-44---44444444-77777------------------|
A|-77-55-77-77---77-55-77-77---77-55-77-44---22222222-55555------------------|
E|-55------------55------------55-------22-----------------------------------|


Chorus
e|---------------------------------------------------------------------------|
B|---------------------------------------------------------------------------|
G|-77----99------77----99-99---77----99----44444444-77777--------------------|
D|-77-77-99-44---77-77-99-99---77-77-99-44-44444444-77777--------------------|
A|-55-77-77-44---55-77-77-77---55-77-77-44-22222222-55555--------------------|
E|----55----22------55------------55----22-----------------------------------|


************************************

Careful Where You Stand chords – Coldplay V2

 Intro:  C#m ,  B  x4


Verse 1:
      C#m B C#m B C#m B 
I feel safe, I feel warm when you're here
            C#m B 
Then I do no wrong
       A F#m C#m 
I am cured, when I'm by your side
       F# AM7 
I'm alright, alright


Verse 2:
    C#m B C#m B 
I am safe, when I am with you
          C#m B C#m B 
And I feel warm, If you want me too
       A F#m C#m 
I am cured, when I'm by your side

       F# AM7 
I'm alright


Chorus:
 Bm GM7 E7 GM7 
Careful where you stand, My love
 Bm GM7 E7 GM7 
Careful where you lay your head
       B G#m G F# (7)           Esus2 E Esus2 E 
It's true  we're always looking out for one another


Verse 3:
      C#m B C#m B 
I feel safe, when I am with you
      C#m B C#m B 
I feel warm, when you want me too
       A F#m C#m 
I am cured when you are around

       F# AM7 
I'm alright


Chorus:
 Bm GM7 E7 GM7 
Careful where you stand, My love
 Bm GM7 E7 GM7 
Careful where you lay your head
       B G#m G F# (7)           Esus2 E Esus2 E 
It's true  we're always looking out for one another


Bridge:
 E/B A/C# Am/C E/B 
  So I'd like a quiet time please
       A/C# Am/C         
Yeah, I'd like a quiet time


Instrumental: 
 Bm ,  GM7 ,  E7 ,  GM7  x4 


Final Chorus:
      B G#m G F# 
Be careful where you stand
       B G#m G F# 
Now, careful where you stand


Outro: 
 B ,  G#m ,  G  (Hold out this G chord with alternation between notes B and D)


This should be fairly accurate. It's in the original key as well (which I assume 
is E, but there's so many key changes, I'm not sure if that's a definite thing). 
Enjoy and rate!

I Remember chords – Mocca

 Chord I remember


      C Dm C Dm 
I remember...The way you glanced at me, yes I remember
         C Dm C C7 
I remember...When we caught a shooting star, yes I remember


#chorus :
          F Em 
I remember.. All the things that we shared
             Dm G C  -  C7 
and the promise we made, just you and I
          F Em A  
I remember.. All the laughter we shared
            Dm G      -    G7 
all the wishes we made, upon the roof at dawn


           C Dm 
Do you remember..? When we were dancing 
         C Dm 
in the rain in that december
          C Dm     -     Dm7 C  -  C7 
And I remember..When my father thought you were a burglar


#back to chorus


#bridge :
 C Dm 
papparappa
          C 
papparappa
         Dm  -  Dm7 
papparapa
 C Dm 
papparappa
          C 
papparappa
         C7 
papparapa


#back to chorus


     C Dm C 
I remember.. The way you read your books, yes I remember
        Dm C 
The way you tied your shoes, yes I remember
          Dm C 
The cake you loved the most, yes I remember
       Dm C 
The way you drank you coffee, I remember
       Dm C 
The way you glanced at me, yes I remember
          Dm C 
When we caught a shooting star, yes I remember
              Dm C 
When we were dancing in the rain in that december
          Dm Dm7 C 
And the way you smile at me, yes I remember

Raging Fire chords – Phillip Phillips V3

 (Verse One)
 G 
We are dead to right, morning rays 
                G 
We are thicking thin to our last days 
        Em C G 
So hold me close and I'll surrender to your heart 
                     G 
You know how to give and how to take 
                 G 
You see every hope I locked away 
        Em C G 
So pull me close and surrender to my heart 
             Em D G 
Before the flame goes out tonight 
           C G D 
We can  live until we die 

(Chorus)
        Em C 
So come out, come out, come out 
                     G 
Won't you turn my soul 
         D 
Into a raging fire 
     Em C 
Come out, come out, come out 
                 G 
Till we lose control 
             D Em  –  C  –  G  
Into a raging fire (hold note)
             D 
Into a raging fire 
   Em C 
Come out, come out, come out 
                     G D 
Won't you turn my soul 
                 G Em C 
Into a raging fire 

(Verse Two)
            G 
You know time will give and time will take 
               G 
All the memories made will wash away 
        Em C G 
Even though we changed I'm still here with you 

 G 
If you listen close you'll hear the sounds
 G Em 
of all the ghosts that bring us down 
   C G 
Hold on to what makes you feel 
                             G 
Don't let go, this one will make you real
           Em D G 
If the flame goes out tonight 
          C G D 
Yeah we live until we die 

(Chorus)
        Em C 
So come out, come out, come out 
                     G 
Won't you turn my soul 
             D 
Into a raging fire 
    Em C 
Come out, come out, come out 

                 G 
Till we lose control 
              D Em C G 
Into a raging fire 
             D 
Into a raging fire 
 Em C 
Come out, come out, come out 
                    G 
Won't you turn my soul 
  D G  –  Em  -  C 
Into a raging fire 

(Bridge)
          Em D G 
Let the world leave lost behind 
            C G D 
Let your heart be next to mine 
            Em D G 
'Fore the flame goes out tonight 
         C G D 
We can live until we die 


 Em C 
Come out, come out, come out 
                    G 
Won't you turn my soul 
             D 
Into a raging fire 
 Em C 
Come out, come out, come out 
                     G 
Won't you turn my soul 
             D 
Into a raging fire 

 Em C 
Come out, come out, come out 
                    G 
Won't you turn my soul 
             D 
Into a raging fire 
 Em C 
Come out, come out, come out 
                    G 
Won't you turn my soul 
             D 
Into a raging fire 
           D 
Into a raging fire

Break Away Speed chords – Kim Richey

 -------------------------------------------------------------------------------
                       BREAKAWAY SPEED - Kim Richey
-------------------------------------------------------------------------------
: rdcoons
 gnr123
Tuning: Half-Step Down

Intro: A
[Verse 1]
 A D A 
She could've made a river, but she had to make rain
                                  D A 
Once it started falling, it was never the same
 E D A 
Forty days running, forty nights long
 E D A E 
Water kept on coming till the valleys were gone... gone

[Chorus]
     D A E 
She said it's alright, took me where she left me
  A E F#m 
Turned around, went away, breakaway speed
   D A E 
Never looked back, said she won't forget me
  A E F#m 
Turned around, went away, breakaway speed
  D A 
Breakaway speed

[Verse 2]
 ( A )                          D A 
Would've come running but I couldn't keep up
                                  D A 
She counted all her blessings but it wasn't enough
            E D A 
They were hiding in the shadows where it's never quite clear
 E D A 
She wants something better that she couldn't find here
          E 
Couldn't find here

[Chorus]
     D A E 
She said it's alright, took me where she left me
  A E F#m 
Turned around, went away, breakaway speed
   D A E 
Never looked back, said she won't forget me
  A E F#m 
Turned around, went away, breakaway speed
  D A 
Breakaway speed

[Solo]
 A D A  x2

[Bridge]
   E A E A 
I think of her, when the sun goes down
      E A D E 
and falls behind, the edge of town

 D E  x2

[Chorus]
     D A E 
She said it's alright, took me where she left me
  A E F#m 
Turned around, went away, breakaway speed
   D A E 
Never looked back, said she won't forget me
  A E F#m 
Turned around, went away, breakaway speed
  D A 
Breakaway speed
  D A 
Breakaway speed
  D A 
Breakaway speed

 D A 


-------------------------------------------------------------------------------
                       BREAKAWAY SPEED - Kim Richey
-------------------------------------------------------------------------------
Tuning: Standard 
Capo 4

Intro:  E 
[Verse 1]
 E A E 
She could've made a river, but she had to make rain
                                  A E 
Once it started falling, it was never the same
 B A E 
Forty days running, forty nights long
 B A E B 
Water kept on coming till the valleys are gone... gone

[Chorus]
     A E B 
She said it's alright, took me where she left me
  E B C#m 
Turned around, went away, breakaway speed
   A <spa

Let Me Love You Acoustic chords – Mario

 Capo on 3 :)
 
 Am Em D 
Mmmm ..... Mmmmm.... Yeah....Mmmmm....Yeah, Yeah, Yeah


[Verse 1:]

 Am 
Baby I just don't get it

 Em 
Do you enjoy being hurt?

 D D 
I know you smelled the perfume, the make-up on his shirt

 Am 
You don't believe his stories

 Em 
You know that they're all lies

 D D D 
Bad as you are, you stick around and I just don't know why


 Am 
If I was ya man (baby you)

 Em 
Never worry bout (what I do)

 D 
I'd be coming home (back to you)

 Am D 
Every night, doin' you right

 Am 
You're the type of woman (deserves good thangs)

 Em 
Fistful of diamonds (hand full of rings)

 D D 
Baby you're a star (I just want to show you, you are)


[Chorus:]

 Am 
You should let me love you

 Em D 
Let me be the one to give you everything you want and need

 Am 
Baby good love and protection

 Em 
Make me your selection

 D 
Show you the way love's supposed to be

                        Am Em D 
Baby you should let me love you, love you, love you


[Verse 2:]


Listen

 Am Em 
Your true beauty's description looks so good that it hurts

 Em D 
You're a dime plus ninety-nine and it's a shame

 D 
Don't even know what you're worth

 Am 
Everywhere you go they stop and stare

 Em 
Cause you're bad and it shows

 D D D 
From your head to your toes, Out of control, baby you know


 Am 
If I was ya man (baby you)

 Em 
Never worry bout (what I do)

 D 
I'd be coming home (back to you)

 Am D 
Every night doin' you right

 Am 
You're the type of woman (deserves good thangs)

 Em 
Fistful of diamonds (hand full of rings)

 D D 
Baby you're a star (I just want to show you, you are)


[Chorus:]

 Am 
You should let me love you

 Em D 
Let me be the one to give you everything you want and need

 Am 
Ooh Baby good love and protection

 Em 
Make me your selection

 D 
Show you the way love's supposed to be

 D 
Baby you should let me....


[Bridge:]

 Am 
You deserve better girl (you know you deserve better)

 Em 
We should be together girl (baby)

 D Am 
With me and you it's whatever girl, hey!

 D 
So can we make this thing ours?


[Chorus:]

 Am 
You should let me love you

 Em D 
Let me be the one to give you everything you want and need

 Am 
Baby good love and protection

 Em 
Make me your selection

 D 
Show you the way love's supposed to be


      Am 
Baby you should let me love you

 Em D 
Let me be the one to give you everything you want and need

 Am 
That good love and protection

 Em 
Make me your selection

 D 
Show you the way love's supposed to be


 Am 
You should let me love you

 Em D 
Let me be the one to give you everything you want and need

 Am 
Good love and protection(protection)

 Em 
Make me your selection(selection)

 D 
Show you the way love's supposed to be yeah

                       

Escape Route Tabs by Paramore

 Paramore 
Escape Route
Tab: alex_dqg 

Intro
Lead
e|------------------------------|
B|------------------------------|
G|------------------------------|
D|------------------------------|x2
A|-------4--3-1-4-------4--3-1--|
E|-11-4-2-44-4----11-4-2-44-4-4-|

Rhythm 
e|-----------------------------------------------------------|
B|-9999-11111111-13131313-14141414-9999-11111111-13131313-66-|
G|-xxxx-xxxx-----xxxxxxxx-xxxxxxxx-xxxx-xxxx-----xxxxxxxx-xx-|
D|-7777-9999-----11111111-12121212-7777-9999-----11111111-44-|x2
A|-----------------------------------------------------------|
E|-----------------------------------------------------------|

Verse 
Bass Jeremy 
Repeat Intro

Chorus 
Lead
e|-----------------------------------------------|
B|-----------------------------------------------|
G|-------66666-----------------------66666-------|
D|-44444-66666-66666-8888-6666-44444-66666-66666-| 
A|-44444-44444-66666-8888-6666-44444-44444-66666-|
E|-22222-------44444-6666-4444-22222-------44444-|

e|---------------------------------------------------|
B|---------------------------------------------------|
G|---------------------------------------------------|
D|-44444-66666-8888-10101010-111111-6666-44444-66666-| 
A|-44444-66666-8888-10101010-111111-6666-44444-66666-|
E|-22222-44444-6666-88888888-9999---4444-22222-44444-|

Rhythm 
e|-6666--------------6666----6666---------------|
B|-----9999-6666-9999----9999----9999-6666-9999-|
G|----------------------------------------------|

e|-6666-8888-9999-11111111-13131313-9999-6666-8888-|
B|-------------------------------------------------|
G|-------------------------------------------------|

Verse 

Bass Jeremy 
Repeat Intro
Repeat Chorus
 
Bridge


e|------------------------------------|
B|------------------------------------|
G|------66-xxx-66-------1010-xxx-1010-|
D|------66-xxx-66-------1010-xxx-1010-|
A|------44-xxx-44-4~-6~-8-8--xxx-8-8--|
E|-6~-2~------------------------------|

Solo

Rhythm 
e|-9999-111111-13131313-9-13-9-13-16161616-|
B|-----------------------------------------|
G|-----------------------------------------|

e|-9999-111111-13131313-----------------------------16161616-|
B|----------------------14141414-1111111111-14141414---------|
G|-----------------------------------------------------------|

Repeat 
Chorus x2

Final 
e|-------------|
B|-------------|
G|-------------|
D|-------------|
A|-------4--3--|
E|-11-4-2-44-4-|

e|---|
B|---|
G|-6-|
D|-6-|
A|-4-|
E|---|

Seasons Waiting On You chords – The Future Islands

 Capo on 3

Intro
 C 

[Verse]

 C D                 
Seasons change, 

 D G  
and I tried hard just to soften you

 C D  
The seasons change

 D G 
but I've grown tired of tryin' to change for you

[Bridge]

 G C D 
Because I've been waiting on you

 D G 
I've been waiting on you

 G C D 
Because I've been waiting on you

 D G 
I've been waiting on you



[Chorus]
 C Em Am 
    As it breaks, the summer awaits

 Am G Am C        
But the winter washed whats left of the taste

 C Em Am 
    As it breaks, the summer awaits

 Am G Am 
But the winter craved whats lost

 G Am Em 
Crave whats all...Gone Away

[Verse 2]
 C D                     
People change

 D G 
even though some people never do

 C          
You know when people change

 D G 
They gain a piece but they lose one too


 G C D 
Because I've been waiting on you

 D G 
I've been waiting on you


 G C D 
Because I've been waiting on you

 D G 
I've been waiting on you

[Chorus]
 C Em Am 
    As it breaks, the summer awaits

 Am G Am C        
But the winter washed whats left of the taste

 C Em Am 
    As it breaks, the summer awaits

 Am G Am 
But the winter craved whats lost

 G Am Em 
Crave whats all...Gone Away

Cut Up Tabs by Girls Names

 Cut Up by Girls Names (off Dead to Me)

Chords:

D:

E-5
B-7
G-7
D-7
A-5
E-5

A:

E-5
B-5
G-6
D-7
A-7
E-5

G:

E-3
B-3
G-4
D-5
A-5
E-3


Intro Pt. 1:

E--------------------------------------------------------------------|
B--------------------------------------------------------------------|
G-7-7-7-7-6-6-6-6-7-7-7-7-6-6-6-6-7-7-7-7-6-6-6-6-7-7-7-7-6-6-6-6----|
D--------------------------------------------------------------------|
A--------------------------------------------------------------------|
E--------------------------------------------------------------------|

Intro Pt. 2: (x2)

E--------------------------------------------------------------------|
B--------------------------------------------------------------------|
G-7-7-7-7-6-6-6-6-7-7-7-7-6-6-6-6-7-7-7-7-6-6-6-6-7-7-7-7-6-6-6-6----|
D--------------------------------------------------------------------|
A--------------------------------------------------------------------|
E--------------------------------------------------------------------|

E--------------------------------------------------------------------|
B--------------------------------------------------------------------|
G-4-4-4-3-4-4-4-3-4-4-4-3-4-4-5-5-6-6-6-5-6-6-6-5-6-6-6-5-6-6-6-5----|
D--------------------------------------------------------------------|
A--------------------------------------------------------------------|
E--------------------------------------------------------------------|

Verse:

D   A   D   A
Girl I'm Cut up

       G              A
I can't wait I can't wait

D  A   D   A
Cut up Cut up

       G             A
I can't wait, no I can't wait.


Bridge: (x2)

E--------------------------------------------------------------------|
B--------------------------------------------------------------------|
G-7-7-7-7-6-6-6-6-7-7-7-7-6-6-6-6-7-7-7-7-6-6-6-6-7-7-7-7-6-6-6-6----|
D--------------------------------------------------------------------|
A--------------------------------------------------------------------|
E--------------------------------------------------------------------|

E--------------------------------------------------------------------|
B--------------------------------------------------------------------|
G-4-4-4-3-4-4-4-3-4-4-4-3-4-4-5-5-6-6-6-5-6-6-6-5-6-6-6-5-6-6-6-5----|
D--------------------------------------------------------------------|
A--------------------------------------------------------------------|
E--------------------------------------------------------------------|



Verse:

D   A  D   A
Cut up Cut up

       G             A
I can't wait I can't wait

D    A   D    A
Cut up so broken up

      G           A
I can't wait no I can't wait

     G          A
To see your face

     G      A
to walk away


Solo: (x2)

E-------------------------------------------------------------------------------|
B-----------------------7-7-5-5-3-3-5-5------------------------7-7-5-5-3-3-2-2--|
G-7-7-7-7-6-6-6-6-----------------------7-7-7-7-6-6-6-6-------------------------|
D-------------------------------------------------------------------------------|
A-------------------------------------------------------------------------------|
E-------------------------------------------------------------------------------|

E-------------------------------------------------------------------------------|
B------------------------7-7-5-5-3-3-5-5------------------------7-7-5-5-3-3-5-5-|
G-4-4-4-3-4-4-4-3-------------------------6-6-6-5-6-6-6-5-----------------------|
D-------------------------------------------------------------------------------|
A-------------------------------------------------------------------------------|
E-------------------------------------------------------------------------------|


Verse:

D   A  D   A
Cut up Cut up

       G             A
I can't wait I can't wait

D    A   D    A
Cut up so broken up

Pick Up Your Broken Heart Tabs by Newton Faulkner

 hi guys :)

this will be my 2nd tab I've done
again done by watching him perform live 
this aint really a hard song 

 write it on your skin.
tab by: Jordan Reece 
tuning: C# G# C# F# B# C# 



C#|-------------------------0--0---0---0--|
G#|--------------------------0--0-4-4-5---|
F#|------------------------0--0---0-0-0-0-| x2
C#|--0-0--2-2--4-4-4s5s4p0-5--5---0---0-0-|
G#|---------------------------------------|
C#|-0---0----0-------------5--5---5---5---|


C#|-------------------------|   
G#|-------------------------| 
F#|--0-----0------9-----7---|  
C#|---0-----4------0-----0--|  
G#|-2--2--0--0--10--10s9--9-|  
C#|-------------------------|

then....

C#|----------------------------------------|  
G#|--------------------------------0-0-0-0-| 
F#|--0-----0------9---9-----6---6--6-6-6-6-|
C#|---0-----4------0---0---7-7-7-7-7-7-7-7-|
G#|-2--2--0--0--10--10--10---0---0-0-0-0-0-| 
C#|------------------------7---7---7-7-7-7-|  

C#|-----------------------------------0-0----0--0---|
G#|-0-----0------0------0------0------0-0-0-4-4-5-0-|
F#|-7-----9------11-----12-----11-----4-4---0-0-0-0-|
C#|-0-----0------0------0------0------5-5---0---0---|
G#|-5-----7------9------10-----9------0-0-----------|
C#|-0-----0------0------0------0------5-5---5---5---|

and basically back to the start and so on...
haven't figured out the bridge but will update
asap once I do.


hope you all can figure it out 
the chorus is easy just listen to the song and
work it out from there thanks and enjoy :)

The Cold One chords – Mike Ryan

  Night Comes Falling
Song: The Cold One
Written by: Mike Ryan, Devin Kleinfelder, Wayne Foster



 Cadd9 G Em G  
Seeing things a little different 'round here
        C G D G 
Honey aint much changed since you left last year
 G Em G 
This town's still dead as it used to be
     C G D G 
ah main street's as broken as your company

 C/F# G Em C/F# 
I've seen my share of heartache in cheap motels yeah they're all the same
 C/F# G D               
Stuck inside of a living hell honey you're the one to blame
 C/F# G Em C/F# 
I'd rather be the cold one and tell you just the way I feel
 C/F# G D G 
Than to come back home and hold you knowing the road has my heart to steal

 Cadd9 G Em G 
You left here a pretty high flyer
            C G D G 
Yeah the greener grass made a fool of you
             G Em G 
Now your coming back sorry, well your a liar
              C G D G    
and girl im way past long gone, over you


Repeat Chorus...

 Cadd9 G Em G 

Bridge
 D C G 
Well I guess you got my best now im taking back whats left
 D C D 
I guess I could get back with you but I'd just be wrecking myself


Repeat Chorus...


Tag
 C/F# G Em A 
I'd rather be the cold one and tell you just the way I feeeeeeel
          C/F# G D G  
than to come back home and hold you knowing the road has my heart to steal.


 Cadd9 G Em G 




*** This is the way that I play it (most of the time) but feel free to play either 
variation of "C" throughout the song...(Cadd9, C, or C/F#) they all sound right. Cheers! 




http://mikeryanband.com

Drunk On A Tuesday chords – Right Side Of The Tree

 Dsus E 
I got outta class
            F#m Dsus   
Ended up in my friend's dorm room
 Dsus E 
"when'd you drink last?"
             F#m Dsus 
Can't remember cause the time's not soon
 Dsus E 
Had a 40 on me
               F#m Dsus 
And two dollars just to get me by
 Dsus E 
Hit the gas station, scene
           F#m Dsus 
We're stealin some beer tonight

Chorus:
 Dsus E 
I'm drunk on a Tuesday
 F#m Dsus 
And I'm feel in alright
 Dsus E 
It's only a Tuesday
 F#m Dsus 
But we're drinkin all night

[Repeat]

Verse 2:
 Dsus 
So I grab two cans, two of them full
 E 
Gotta skip class, fuck my school
 F#m 
Imma get bla-sted tonight
 Dsus 
Call up my friends, get things right
 Dsus 
Get em on the phone, funnel my beer
 E 
Best damn time we had all year
 F#m 
Ain't goin home, let's have fun
 Dsus 
Drinkin til we all see the sun

Chorus

Bridge:
 Dsus E F#m Dsus 
I'm outside now, but I'm not alone
 Dsus E F#m Dsus 
And I got my can, but it's my own
 Dsus E F#m E Dsus 
I'm so tipsy now, but I only k-n-o-w

Chorus

One Life chords – Justin Bieber V3

 SONG: One Life
ARTIST: Justin Bieber
 Journals (2014)

TUNING: Drop D (low to high: DADGBe)

CAPO: 1st fret

***CHORDS/TABS ARE IN RELATION TO CAPO***

CHORDS:
   F#maj7 G#sus4 C#maj9   D#min9
e|---0---|---x---|---x---|---0---||
B|---1---|---3---|---0---|---1---||
G|---2---|---5---|---5---|---2---||
D|---2---|---5---|---5---|---3---||
A|---x---|---3---|---x---|---x---||
D|---3---|---x---|---5---|---0---||

These are the only four chords played in the song, and they are in this order 
throughout. Hope this helps!



***LYRICS***

INTRO:
So girl
You just be honest with me, I know we can make this work
I love you

VERSE 1:
I know that you afraid, babe
But you don't need to be saved, babe
You just need someone who understands
And I think I need the same, babe
Show me where you at, let's keep it honest
Home is where you at and that's a promise
Open up and never keep it from us
Nothing left between us, baby, nothing
Tell me what you want, let's keep it gangsta
Tell me who created you, I'd thank her
Open up and never keep it from us
Nothing left between us, baby

PRE-CHORUS:
Hopefully you'll give me a chance
All I want is love and romance
I wanna give it all, give it all to you

CHORUS:
I wanna dream what you dream
Go where you're going
I only have one life
And I only wanna live it with you
I wanna sleep where you sleep
Connect with your soul
The only thing I want in life
I only wanna live it with you
Oh yeah, oh yeah
I only wanna live it with you
Only wanna live it with you

VERSE 2:
Tell me what you want, I can't believe it
I know that if we make it there's a reason
Sometimes the sun shines, baby
Sometimes the... ain't breezy
I hope that maybe this time it may be different
I told you I'm a make it, that commitment
Yeah, you took your shot and didn't miss it
Ain't nothing more attractive than ambition

[PRE-CHORUS]

[CHORUS]

BRIDGE
If I came to your crib would you open the door?
I don't wanna go down that road no more
Said you wanted it bad, but girl I wanted it more
You're the only one I wanna be with, yeah, yeah

[CHORUS]

Lay Me Down Acoustic chords – Sam Smith V2

 ---Verse 1---

 E 
Yes I do, I believe

                              E                
That one day I will be, where I was

                                                 A 
Right there, right next to you 
                                                            
And it's hard, the days just seem so dark

             A 
The moon, the stars, are nothing without you

 E 
Your touch, your skin, where do I begin?
           E 
No words can explain, the way I’m missing you

 A 
The night, this emptiness, this hole that I’m inside

 A 
These tears, they tell their own story

 F#Min A E B 
You told me not to cry when you were gone

 F#Min A E B 
But the feeling’s overwhelming, they're much too strong


---Chorus---

 E G#Min C#Min A 
Can I lay by your side, next to you, you

 E G#Min  
And make sure you’re alright

  C#Min     
I’ll take care of you, 

  A B E 
 I don’t want to be here if I can’t be with you tonight


---Verse 2---


 E 
I’m reaching out to you

 A 
Can you hear my call? 

 E 
This hurt that I’ve been through

 E A 
I’m missing you, missing you like crazy

 F#Min A E B 
You told me not to cry when you were gone
 F#Min A E B 
But the feeling’s overwhelming, they're much too strong


---Chorus---


 E G#Min C#Min A 
Can I lay by your side, next to you, you

 E G#Min  
And make sure you’re alright

  C#Min     
I’ll take care of you, 

  A B F#Min A E B 
 I don’t want to be here if I can’t be with you tonight

---Bridge---

 F#Min A D B F#Min A D B   
Lay me down tonight,    lay me by your side

F#Miin           A D B F#Min A B 
Lay me down tonight, lay me by your side


---Chorus---

 E G#Min C#Min A 
Can I lay by your side, next to you, you-ou

 E G#Min  
And make sure you’re alright

  C#Min     
I’ll take care of you 

 A B E 
And I don’t wanna be here if I can’t be with you tonight