Tag: burns

Jingle Bells Tabs – August Burns Red

 -------------------------------------------------------------------------------
                             Jingle Bells - August Burns Red
-------------------------------------------------------------------------------
:Henry Orellana
horellana24

Tuning: Drop C

*, I've been wanting to play this song since it came out but no one made a tab for it
so I decided to learn this song by ear so this tab is not 100% correct, if you have any corrections let me know 
or feel free to make your own version. I wanted to post this with more than enough time for people to learn this
by Christmas, so enjoy! Sorry for not including the acoustic part in the beginning.

 Jingle Bells
e|---------------------------------------------------------------------------|
B|121212-121212-12-15--------------------------------------------------------|
G|--------------------12-14-16--12-171717-1717-1616-161616-1414-16-14-19-----|
D|---------------------------------------------------------------------------|
A|---------------------------------------------------------------------------|
E|---------------------------------------------------------------------------|

e|---------------------------------------------------------------------------|
B|121212-121212-12-15--------------------------------------------------------|
G|--------------------12-14-16--12-171717-1717-1616-1616-1919-17-14-12-------|
D|---------------------------------------------------------------------------|
A|---------------------------------------------------------------------------|
E|---------------------------------------------------------------------------|
 
 Dashing Through the Snow 
e|---------------------------------------------------------------------------|
B|---------------------------------------------------------------------------|
G|---------------------------------------------------------------------------|
D|--9-7-5-------9-7-5-2---10-9-7-4-1212-10-7-9-------------------------------|
A|5-------5-555---------7----------------------------------------------------|
E|---------------------------------------------------------------------------|

e|---------------------------------------------------------------------------|
B|---------------------------------------------------------------------------|
G|---------------------------------------------------------------------------|
D|--9-7-5-------9-7-5-2---10-9-7-121212-1212-14-12-10-7-5/12-----------------|
A|5-------5-555---------7----------------------------------------------------|
E|---------------------------------------------------------------------------|

 (During the second part of Dashing Through the Snow)
e|7p3---3h7p3---3h7p3---3h7p3---3-8p3---3h8p3---3h8p3---3h8p3---3------------|*You play the same pattern but 
B|----3-------3-------3-------3-------5-------5-------5-------5--------------|with different shapes.
G|---------------------------------------------------------------------------|
D|---------------------------------------------------------------------------|
A|---------------------------------------------------------------------------|
E|---------------------------------------------------------------------------|

e|10p5---5h10p5---5h10p5---5h10p5---5-15p10----10h15p10----10h15p10----10h15p10---|After this you go back to the
B|-----7--------7--------7--------7---------12----------12----------12----------12|Jingle Bells intro.
G|--------------------------------------------------------------------------------|
D|--------------------------------------------------------------------------------|
A|--------------------------------------------------------------------------------|
E|--------------------------------------------------------------------------------|

 Dashing Through the Snow(solo)
e|--------------------------------------------------------10-----------------| ? I'm not sure if that's where
B|--12-10-8--------5h8-8-8h10p8-10b12-10-8h10p8-----8-5---------

Ye Banks And Braes O Bonnie Doon chords – Robert Burns

 Ye Banks and Braes O’ Bonnie Doon
Written by Robert Burns

This version I am writing is based on the 
Cover by the group, Fiddlesticks.


    D Am/C D Am/C         
Ye banks and braes o' bonnie Doon,
     D G D A      
How can ye bloom sae fresh and fair?
     D Am/C D Am/C         
How can ye chant, ye little birds,
     D G G D            
And I'm sae weary, fu' o' care!

       D G D D G D     
Ye'll break my heart, ye warbling bird,
      D G A  
That wantons through the flow'ring thorn,
    D Am/C D Am/C              
Ye mind me  o'  departed joys,
   D G G D                 
Departed never to return.


     D Am/C D Am/C          
Oft ha'e I roved by bonnie Doon,
    D G D A        
To see the rose and woodbine twine;
     D Am/C D Am/C          
And ilka bird sang o' its love,
     D G G D             
And fondly sae did I o' mine.
                                 
     D G D D G D    
Wi' lightsome heart I stretch'd my hand,
     D G A        
And pu'd a rosebud from the tree;
     D Am/C D Am/C       
But my fause lover stole the rose,
     D G G D    
And left, and left the thorn wi’ me.

    D Am/C D Am/C         
Ye banks and braes o' bonnie Doon,
     D G D A      
How can ye bloom sae fresh and fair?
     D Am/C D Am/C         
How can ye chant, ye little birds,
     D G G D            
And I'm sae weary, fu' o' care!

       D G D D G D     
Ye'll break my heart, ye warbling bird,
      D G A  
That wantons through the flow'ring thorn,
    D Am/C D Am/C              
Ye mind me  o'  departed joys,
   D G G D                 
Departed never to return.

Sic A Parcel Of Rogues chords – Robert Burns

 Em C G 
Fareweel to a' our Scottish fame,
     Am D C Em 
Fareweel our ancient glory
     Em C G 
Fareweel ev'n to the Scottish name,
      Am D C Em 
Sae famed in martial story
     G Em C G 
Now Sark rins over Solway sands
   G D C Em 
An Tweed rins to the ocean
    G Em C G 
To mark where England's province stands -
      G D C Em 
Sic a parcel o rogues in a nation!

 
     Em C G 
What force or guile could not subdue
      Am D C Em 
Through many warlike ages
    Em C G  
Is wrought now by a coward few
     Am D C G 
For hireling traitor's wages
  G Em C G 
The English steel we could disdain
   G D C Em 
Secure in valour's station
    G Em C G 
But English gold has been our bane -
    G D C Em 
Sic a parcel o rogues in a nation!

 
     Em C G 
O would, or I had seen the day
     Am D C Em 
That Treason thus could sell us,
     Em C G 
My auld grey head had lien in clay
     Am D C G 
Wi Bruce and loyal Wallace!
     G Em C G 
But pith and power, till my last hour
     G D C Em 
I'll mak this declaration
    G Em C G  
We're bought and sold for English gold -
       G D C Em 
Sic a parcel o rogues in a nation!

Love That Burns Tabs by Fleetwood Mac

                                           Artist - Fleetwood Mac
                                         ************************
                                          Song - Love That Burns 
                                         ************************
                                           Album - Mr Wonderful 
                                          **********************
                                            - Ayreon77
                                          **********************


        


INTRO
******
            Am                              Dm                  Am
[----------|---5--------------|------------|--------------|-----------------]
[----------|-b----b-----------|-brp--------|---5----------|-----b-----------]
[--------5-|-7----7-7-5-------|-7--5---5-7-|-7---5-7----s-|-7-5-7-7-5-------]
[----5-7---|------------7-7-7-|------7-----|---------7-7\-|-----------7-7-7-]
[-7--------|------------------|------------|--------------|-----------------]
[----------|------------------|------------|--------------|-----------------]


[---------]
[---------]
[---------]
[--s--5-7-]
[-5\7-----]
[---------]


-------------------------------------------------------------
VERSE 1
********
Am
Would you love me tomorrow

Like you say you love me now

00:36
[----------------------]
[----------------------]
[---------------s-s-s--]
[---5-7--s-----5\7\5\7-]
[-7-----7\5-3----------]
[----------------------]
          Dm
Would you love me, would you love me tomorrow
                 Am
Like you say you love me now

00:55
[----------------------------]
[-brp------------------------]
[-7--5--p-----------------s--]
[------7-5--s------p-s---5\7-]
[----------7\5-3--7-5\3------]
[----------------------------]
         Em
When the flames of our flesh have stopped burning
Dm                           Am
    And the fire of our love has cooled down

01:16
[----------------------]
[----------------------]
[--h-------------------]
[-5-7-5--s------s-s----]
[-------7\5-3--5\6\5-3-]
[----------------------]


-------------------------------------------------------------
VERSE 2
********
Am
Too many times I've given too much

01:25
[------|---------]
[-brp--|---------]
[-7--5-|-7-5-----]
[------|-----7-7-]
[------|---------]
[------|---------]

Baby, give me your love to me in return

01:34
[---------5-|---------------------------------]
[-b-----5---|-8-5-----------------------------]
[-7---------|-----7-5----------------------s--]
[-hold------|---------7-7----5-7-5--s-----5\7-]
[-----------|--------------7-------7\5-3------]
[-----------|---------------------------------]
Dm
  Too many times I've given too much

01:48
[----------------]
[-b--------5-----]
[-7-7-5-7----5---]
[--------------7-]
[----------------]
[----------------]
                           Am
Baby, give me your love in return

01:56
[-------|-----------------------|-------------------------]
[-------|-----------------------|-------------------------]
[-------|----------------h-p----|-------------------5-----]
[---5-7-|---5-7-5--s----0-2-0---|------------s--5-7---7-7-]
[-7-----|-7-------7\5-3-------3-|-------3-5-5\7-----------]
[-------|-----------------------|-0-3-5-------------------]
Em
   Give me your mind and your heart
Dm                                            Am
   But please don't leave me with a love that burns

02:16
[-------------5-|-------------------]
[-b--p---b--5---|-b--p--------------]
[-7-7-5--7------|-7-7-5--p----5-----]
[---------------|-------7-5-7---7-7-]
[---------------|-------------------]
[---------------|-------------------]


-------------------------------------------------------------
VERSE 3
********
Am
And don't use me as your fool

02:27
[-----------]
[-----------]
[-----------]
[---5--s----]
[-7---7\5-3-]
[-----------]

'Cause my heart can't stand another lie

02:3

Cigarette Burns Forever Tabs by Drowners

 Originally by Adam Green, covered by Drowners

Intro:
      C               Em              F             G
|---0---0-----------0---0-----------1---1----------3---3----------|
|---1---1-----1-----0---0-----0-----1---1----1-----0---0---0------|
|-----0-----0---0-----0-----0---0-----2----2---2-----0---0---0----|
|-----------------------------------------------------------------|
|-----------------------------------------------------------------|
|-----------------------------------------------------------------|

      G7
|---1---1----------|
|---0---0-----0----|
|-----0-----0---0--| 
|------------------|
|------------------|
|------------------|

      C               Em              F             G
|---0---0-----------0---0-----------1---1----------3---3----------|
|---1---1-----1-----0---0-----0-----1---1----1-----0---0---0------|
|-----0-----0---0-----0-----0---0-----2----2---2-----0---0---0----|
|-----------------------------------------------------------------|
|-----------------------------------------------------------------|
|-----------------------------------------------------------------|
   Cigarette burns forever, the message is spliced together

      C               Em              F             G
|---0---0-----------0---0-----------1---1----------3---3----------|
|---1---1-----1-----0---0-----0-----1---1----1-----0---0---0------|
|-----0-----0---0-----0-----0---0-----2----2---2-----0---0---0----|
|-----------------------------------------------------------------|
|-----------------------------------------------------------------|
|-----------------------------------------------------------------|
   Now I would never let her, but where did people go to get her?

      C               Em              F             G
|---0---0-----------0---0-----------1---1----------3---3----------|
|---1---1-----1-----0---0-----0-----1---1----1-----0---0---0------|
|-----0-----0---0-----0-----0---0-----2----2---2-----0---0---0----|
|-----------------------------------------------------------------|
|-----------------------------------------------------------------|
|-----------------------------------------------------------------|
   You took me to a private party, and swore that they would not card me

      C               Em              F             G
|---0---0-----------0---0-----------1---1----------3---3----------|
|---1---1-----1-----0---0-----0-----1---1----1-----0---0---0------|
|-----0-----0---0-----0-----0---0-----2----2---2-----0---0---0----|
|-----------------------------------------------------------------|
|-----------------------------------------------------------------|
|-----------------------------------------------------------------|
  Drive careful lest they hear you, when all the time they learnt to fear you

      G7
|---1---1----------|
|---0---0-----0----|
|-----0-----0---0--| 
|------------------|
|------------------|
|------------------|

      C               Em              F             G
|---0---0-----------0---0-----------1---1----------3---3----------|
|---1---1-----1-----0---0-----0-----1---1----1-----0---0---0------|
|-----0-----0---0-----0-----0---0-----2----2---2-----0---0---0----|
|-----------------------------------------------------------------|
|-----------------------------------------------------------------|
|-----------------------------------------------------------------|
   The sidewinder drinks and gambles, the gold digger strikes his damsels

      C               Em              F             G
|---0---0-----------0---0-----------1---1----------3---3----------|
|---1---1-----1-----0---0-----0-----1---1----1-----0---0---0------|
|-----0-----0---0-----0-----0---0-----2----2---2-----0---0---0----|
|-----------------------------------------------------------------|
|-----------------------------------------------------------------|
|--------------------------------------------------------------

Dance Of The Sugar Plum Fairy Tabs by August Burns Red

 Title: Dance of the Sugar Plum Fairy
Artist: August Burns Red
 Sleddin' Hill
Tempo = 100

SubTitle:  Daniel Yates

There may be a few little bits where the rhythm is slightly off but I'd say that the 
notes are pretty much 99% correct! Enjoy!

And check out my youtube channel!

http://www.youtube.com/user/TheDanielYates

JB Lead


Legend
L - tied note
x - dead note
h - hammer on/pull off
b - bend
s - slide
~ - vibrato
g - ghost note
> - accentuated note
t - trill
M - palm mute
. - staccato
P - popping (bass)
S - slapping (bass)
+ - tapping
W - wide vibrato

Everything Burns chords – Ben Moody

 Am G Em F 
She sits in her corner, singing her self to sleep
 Am G Em F 
Wrapped in all of the promises that no one seems to keep
 Am G Em F 
She no longer cries to herself no tears left to wash away
 Am G Em F 
Just diaries of empty pages feelings gonna strafe

CHORUS
 F E 
But she will sing
                 Am F 
Till everything burns till everyone screams
               Dm G 
burning their lies burning my dreams
             Am F 
all of this hate and all of this pain
             Dm F 
burn it all down cause my anger raise till everything burns
 
 Am G Em F 
Walking through life for notice, knowing that no one cares
 Am G Em F 
Too consumed in their mascarade, no one sees her there

CHORUS
 F E 
And still she sings
                 Am F 
Till everything burns till everyone screams
               Dm G 
burning their lies burning my dreams
             Am F 
all of this hate and all of this pain
             Dm G 
burn it all down cause my anger raise till everything burns


INTERLUDE  Am F Dm G Am F Dm G 


CHORUS
                Am F 
Till everything burns till everyone screams
               Dm G 
burning their lies burning my dreams
             Am F 
all of this hate and all of this pain
             Dm G 
burn it all down cause my anger raise till everything burns

Carol Of The Bells Tabs by August Burns Red V6

 This wasn't too hard to pick out but it is fast at times. Hope you enjoy.

1------------------------------------------------------------------|
2------------------------------------------------------------------|
3------------------------------------------------------------------|
4------------------------------------------------------------------|
5--6-5h6-----------------------------------------------------------|
6--------8---------------------------------------------------------|

the second guitar comes in with this

1------------------------------------------------------------------|
2------------------------------------------------------------------|
3------------------------------------------------------------------|
4--5---5-----------------------------------------------------------|
5----8---6---------------------------------------------------------|
6------------------------------------------------------------------|

rhythm for these first two parts is....

C         A#         G#        G


1------------------------------------------------------------------|
2------------------------------------------------------------------|
3--8--7h8--5-------------------------------------------------------|
4------------------------------------------------------------------|
5------------------------------------------------------------------|
6------------------------------------------------------------------|

this is played a little faster

1------------------------------------------------------------------|
2------------------------------------------------------------------|
3--55--------------------------------------------------------------|
4----8-6-55------------555-----------------------------------------|
5----------8-6-55-6-8----------------------------------------------|
6------------------------------------------------------------------|


1------------------------------------------------------------------|
2------------------------------------------------------------------|
3------------------------------------------------------------------|
4----------5h6-5---------------------------------------------------|
5--55-66-88-----8--------------------------------------------------|
6------------------------------------------------------------------|

That's the whole song except for the heavy distortion part... That can't be played 
unless in drop C.

Troposphere chords – Steve Burns

 I've noticed a lack of Steve Burns tabs for quite some time
and I've drawn the conclusion that nobody realises that our favourite
Blue's Clues host released an album in 2003, shortly after he left the show.

So, I decided to add a few tabs of his songs to the internet for all to enjoy.


Intro:
 C C/B Am G C C/B Am G 
  Sit right next to me, against the glass, where we both can see
 C C/B Am G 
  Focus on the ground, disbelief of where we used to be

 C C/B Am G C C/B Am G 
  What should I do now? I'm upside-down, fighting with gravity
 C C/B Am G 
  I'll just lock the door, and they won't know how to find me

 F Fm C 
I couldn't share it, you never saw it coming around
 F Fm C 
Even the bad parts move along better than they should

 C7 F G C C/B Am 
Now I'm waiting here to dis - a - ppear
 F Fm C C7 
Have you ever been so tired of yourself?
          F G C C/B Am 
And I'll meet you here in the Tro - po - sphere
 F Fm C 
Lately I just haven't been myself

( short phrase of just C )

 C C/B Am G C C/B Am G 
  Back here on the ground, you're halfway gone and the traffic drowns you out
 C C/B Am G 
  Driving past your school, I grew up here looking at you

 F Fm C 
I couldn't share it, you never saw it coming around
 F Fm C                       
Even the bad parts move along better than they should

 C7 F G C C/B Am 
Now I'm waiting here to dis - a - ppear
 F Fm C C7 
Have you ever been so tired of yourself?
          F G C C/B Am 
And I'll meet you here in the Tro - po - sphere
 F Fm C 
Lately I just haven't been myself

 C7 Am Am Dm F C C/B Am G C C/B Am G C 



I'm having a hard time deciding what the last chord is.
So if anyone has a better ear than I, let me know what you believe it is.

As usual, questions, comments, corrections, etc. email bambrown@comcast.net

A Reason Tabs by Steve Burns

 This song is pretty lo-fi and simple, so it's easy to play on guitar, 
but it's the simplicity of the song that I love. 
There are really only two parts to learn.

/=slide

Let every note ring after you play it.

Intro/verse:
|-----------------------------|-------------------------------|
|---8--/--5-----5/7/5---3-----|---8--/--5-----0--1--3--0------|
|-----------------------------|-------------------------------|
|-----------------------------|-------------------------------|
|---7--/--3-----3/5/3---2-----|---7--/--3--------0--2---------|
|-----------------------------|---------------3--------3------|


Bridge:
|------------------------------------------------------------|
|---3-----0--------3-----0--------3-----0--------3-----0-----|
|------------------------------------------------------------|
|------------------------------------------------------------|
|---2--------------2--------------2--------------2-----------|
|---------3----0---------3----0---------3----0---------3-----|

|------------------------------------------------------------|
|---3-----0--------3-----0--------3-----0--------3-----0-----|
|------------------------------------------------------------|
|------------------------------------------------------------|
|------------------------------------------------------------|
|---2-----3----0---2-----3----0---2-----3----0---2-----3-----|




Last time on the outro:
|------------------------------|------------------------------|
|---8--/--5-----5/7/5----3-----|---8--/--5-----5/7/5----3-----|
|------------------------------|------------------------------|
|------------------------------|------------------------------|
|---7--/--3-----3/5/3----2-----|---7--/--3-----3/5/3----2-----|
|------------------------------|------------------------------|

|------------------------------|
|---8--/--5-----0--1--3--0-----|
|------------------------------|
|------------------------------|
|---7--/--3--------0--2--------|
|---------------3--------3-----|


I tried to make it as visually clear as possible,
but basically, he slides up and down to and from each note,
so there's always sound coming from the guitar.

That's all there is to it.
Any comments, questions, etc. send to bambrown@comcast.net

Burns Like A Buzzsaw Blade Tabs by Annihilator

 #----------------------------------PLEASE NOTE---------------------------------#
#This file is the author's own work and represents their interpretation of the #
#song. You may only use this file for private study, scholarship, or research. #
#------------------------------------------------------------------------------##
(If anyone would like to use these tabs for commercial use ie. Websites etc.
                 please seek permission as copyrights are held)

Annihilator - Burns Like A Buzzsaw Blade

 Ol Drake [EVILE]
www.annihilatormetal.com
http://www.facebook.com/pages/Annihilator/9614139730

* * ATTENTION BANDS: Jeff Waters has time for some mixing and/or mastering... 
so if you are legitimately serious about getting him to do your cd, contact: 
watersound@sympatico.ca * *

Tuning - Drop 1/4 of a step


Both Gtrs
  PM--|            PM--|
|-----------------------------------|
|-----------------------------------|
|-----------------------------------|
|-------5---5------------5----10----|
|-5-3-0-2---3------5-3-0-2-----8----|
|-----------------------------------|

  PM--|            PM--|
|---------------------------------------------|
|---------------------------------------------|
|---------------------------------------------|
|-------5---5------------5-----10---10---7----|
|-5-3-0-2---3------5-3-0-2------8----7---5----|
|---------------------------------------------|


Gtr 1
  PM--|            PM--|
|-----------------------------------|
|-----------------------------------|
|-----------------------------------|
|-------5---5------------5----10----|
|-5-3-0-2---3------5-3-0-2-----8----|
|-----------------------------------|

  PM--|            PM--|
|---------------------------------------------|
|---------------------------------------------|
|---------------------------------------------|
|-------5---5------------5-----10---10---7----|
|-5-3-0-2---3------5-3-0-2------8----7---5----|
|---------------------------------------------|


Gtr 2
  PM--|            PM--|
|-----------------------------------|
|-----------------------------------|
|-----------------------------------|
|-------5---5------------5----10----|
|-5-3-0-2---3------5-3-0-2-----8----|
|-----------------------------------|

  PM--|            PM--|
|---------------------------------------------|
|---------------------------------------------|
|---------------------------------------------|
|-------5---5------------5-----10---10---7----|
|-8-7-0-2---3------8-7-0-2------8----7---5----|
|---------------------------------------------|


Both Gtrs
play twice
               PM--------|               PM--------|
|-------------------------------------------------------|
|-------------------------------------------------------|
|-------------------------------------------------------|
|-------5---5--------------------5---10-----------------|
|-5p3p0-2---3--0-0-0-0-0-0-5p3p0-2----8--0-0-0-0-0-0----|
|-------------------------------------------------------|


               PM--------|
|------------------------------------------------------|
|------------------------------------------------------|
|------------------------------------------------------|
|-------5---5--------------------5---5--10---10---7----|
|-5p3p0-2---3--0-0-0-0-0-0-5p3p0-2---2---8----7---5----|
|------------------------------------------------------|


Gtr 3
|------------------------|
|------------------------|
|- <5>-------------/14----|
|------------------------|
|------------------------|
|------------------------|


|------------------------------------------------------------|
|-17b18-----------17b18--17--15--17--15h17p15----15----------|
|---------------------------------------------17----17b19----|
|------------------------------------------------------------|
|------------------------------------------------------------|
|------------------------------------------