Tag: calling

The House Weve Been Calling Home chords – David Allan Coe

 "The House We've Been Calling Home"
by D.A.C.

Capo 1st fret

 E A E 
Jessie she stares like a cat with a bird that has fallen and broke its wing
 E A B 
Terri she puts on her make-up and wonders what promise the new day will bring
 A B E A B E 
Debbie stays home with the baby while I work my hands to the bone
      A E C# A B E 
Yeah I make a living they do the giving in a house we've been calling home

        A B E A B E 
Just a house we've been trying to live in just a place we've been calling our own
 A B E C# A B E 
Me and my wives have been spending our lives in a house we've been calling home

 E A E 
Jessie's the youngest she always needs answers to questions that I just don't know
 E A B 
Terri she can't sit still for a moment she's always in some hurry to go
 A B E A B E 
Debbie's been with me the longest we spend most of our time on the phone
 A E C# A B E 
Talking in rhymes with no reasons in mind for this house we've been calling home

        A B E A B E 
Just a house we've been trying to live in just a place we've been calling our own
 A B E C# A B E 
Me and my wives have been spending our lives in a house we've been calling home

I Can Hear My Savior Calling – Where He Lead Me chords – Hillsongs

 Verse 1
 C F G7 
I can hear my Savior calling
                      C 
I can hear my Savior calling
               C7 F 
I can hear my Savior calling
          C G7 C 
Take thy cross and follow follow Me


Chorus
                   F G7 
Where He leads me I will follow
                           C 
Where He leads me I will follow
                   C7 F 
Where He leads me I will follow
         C G7 C 
I'll go with Him with Him all the way


Verse 2
 C F G7 
I'll go with Him through the garden
                              C 
I'll go with Him through the garden
                  C7 F 
I'll go with Him through the garden
          C G7 C 
I'll go with Him with Him all the way 


Verse 3
 C F G7 
I'll go with Him through the judgment
                              C 
I'll go with Him through the judgment
                  C7 F 
I'll go with Him through the judgment
          C G7 C 
I'll go with Him with Him all the way 


Verse 4
 C F G7 
He will give me grace and glory
                           C 
He will give me grace and glory
                 C7 F 
He will give me grace and glory
          C G7 C 
And go with me with me all the way 

Jesus Is Tenderly Calling Tabs – Fanny Crosby

 -------------------------------------------------------------------------------
                  Jesus is tenderly calling - Fanny Crosby
-------------------------------------------------------------------------------
:

Key of Bb
Tuning:E-A-D-G-B-e

e|---------------------------------------------------------------------------|
B|---------------------------------------------------------------------------|
G|----------------------0------2---3----3--2----0--2--0----------------------|
D|--3-3--3---3--0--1--3-1------1---0----1--1----1--1--1--3---1---3---3----3--|
A|--5-5--5---5--1--3--5----------------------------------5-------5---5----5--|
E|---------------------------------------------------------------------------|
   Jesus is tenderly calling thee home calling today calling to day why from 
e|---------------------------------------------------------------------------|
B|------------------------------------------------1--------------------------|
G|-----------------------0----2---3----2-------2-----3----0------------------|
D|--3---3--0----1----3---1----1---0------0--------1--1----1--3---------------|
A|--5---5--1----3----5-----------------3-3-----3-----------------------------|
E|---------------------------------------------------------------------------|
   the sunshine of love wilt you roam farther and farther away
e|---------------------------------------------------------------------------|
B|----------------------1-------------3--1-----3-----------------------------|
G|-------3--2---0---2-------3---2--3-------3---2---2--0----------------0-----|
D|-------0--0---0---1---1---0------0--3--1-0-------3--1---3--3--3--3---1-----|
A|------------------------------3-------------------------5--5--5------------|
E|---------------------------------------------------------------------------|
chorus: calling to day calling today Jesus is calling is tenderly calling 
e|---------------------------------------------------------------------------|
B|-----3---------------------------------------------------------------------|
G|--2------------------------------------------------------------------------|
D|--3--3---------------------------------------------------------------------|
A|---------------------------------------------------------------------------|
E|---------------------------------------------------------------------------|
   to day



************************************

| /   slide up
| \   slide down
| h   hammer-on
| p   pull-off
| ~   vibrato
| +   harmonic
| x   Mute note
| b   Bend
| pb  Pre-bend
| br  Bend release
| pbr Pre-bend release
| brb Bend release bend

************************************

The Stars Keep On Calling My Name solo Tabs – Mac Demarco

 This is the solo at the end of the album version song:

From 1:45 to the end (2:23)

Note: the solo in the live version is 100% different, so make sure you listen the album/studio version.

Tuning: Standard (EADGBe)

e -----------------------
B --/15-15-15-15----15---
G -----------------------
D -----------------------
A -----------------------
E -----------------------

e ------------------15---
B --/15-15-15-15---------
G -----------------------
D -----------------------
A -----------------------
E -----------------------

e ------------------------------------
B --/15-15-15-15p12-------------------
G ------------------14p12-14-14p12-14-
D ------------------------------------
A ------------------------------------
E ------------------------------------

e ------------------17---
B --/15-15-15-15---------
G -----------------------
D -----------------------
A -----------------------
E -----------------------

e ------------------15---
B --/15-15-15-15---------
G -----------------------
D -----------------------
A -----------------------
E -----------------------

e ----------------------------
B --/15-15-15-15----15p12-----
G ------------------------14--
D ----------------------------
A ----------------------------
E ----------------------------

e -----------------------
B --/15-15-15-15----15---
G -----------------------
D -----------------------
A -----------------------
E -----------------------

e ------------------15---
B --/15-15-15-15---------
G -----------------------
D -----------------------
A -----------------------
E -----------------------

e ----------------19-17b19b17-15-15-17---
B --/15-15-15-15-------------------------
G ---------------------------------------
D ---------------------------------------
A ---------------------------------------
E ---------------------------------------

                                  (wait)
e ---------------------------------------------------------------------------------------------------
B --/15-15-15-15----15p12-15-15-------------12-------------------------------------------------------
G ----------------------------------------------14-14-----14b16b14-14-12-14---14b16b14-14-12-12------
D ---------------------------------------------------------------------------------------------------
A ---------------------------------------------------------------------------------------------------
E ---------------------------------------------------------------------------------------------------

e ----------------------
B ----------------------
G --14b16b14-14-12-12---
D ----------------------
A ----------------------
E ----------------------


Notation:
"/15" means slide from anywhere.
"14b16b14" means bend "14" until it sounds like "16" and from there bend it back so it sounds again like "14"

Wherever You Will Go Tabs – Calling V8

 -------------------------------------------------------------------------------
                           Wherever you will go - The Calling 
-------------------------------------------------------------------------------
:Ken Lavina
kenbrian03

Tuning:EADGBE
 
Intro:

e|--------------------|--------------------|------------------|----1-----1---1--|
B|----------1---------|------------0-------|------------1-----|-----------------|
G|------0----0--------|------0-------0-----|------2-------0---|-----------------|
D|----2---2----2------|----0----0------0---|----2----2------2-|-----------------|
A|--3----3------------|--2----2------------|--0----0----------|--3----3---------|
E|--------------------|--------------------|------------------|-1-------1--3----|

Verse: 1
 
e|--------------------|--------------------|------------------|-----------------|
B|--------0-1---1-----|--------0--1---1----|--------0-1---1---|--3---1---0--1---|
G|------0-----0-------|------0--0---0------|------2-----0-----|----0---0--------|
D|----2---------------|----0---------------|----2-------------|--3--------------|
A|--3-----------------|--2-----------------|--0---------------|-----------------|
E|--------------------|--------------------|------------------|-----------------|

e|--------------------|--------------------|------------------|-----------------|
B|--1-----0-1---1-----|--------3--1---1----|--------0-1---1---|--3---1---0--1---|
G|------0-----0-------|------0--0---0------|------2-----0-----|----0---0--------|
D|----2---------------|----0---------------|----2-------------|--3--------------|
A|--3-----------------|--2-----------------|--0---------------|-----------------|
E|--------------------|--------------------|------------------|-----------------|

Pre-Chorus:1

e|--------0-----------|----------0---------|------------------|-----------------|
B|--1---1---1---------|--3----3------------|--1----0-1--------|--3---1-0-1------|
G|------0-------------|--------------------|------------------|-----------------| 
D|------2-------------|--------------------|--2---------------|-----------------|
A|--3---3-------------|--------------------|------------------|-----------------|
E|--------------------|--3-3--3------------|------------------|--1---1----------|

e|--------0-----------|----------0---------|--1---0-----------|-----------------|
B|--1---1---1---------|--3----3------------|---------0-1------|--3---1-0-1------|
G|------0-------------|--------------------|------------------|-----------------| 
D|------2-------------|--------------------|--2---------------|-----------------|
A|--3---3-------------|--------------------|------------------|-----------------|
E|--------------------|--3-3--3------------|------------------|--1---1----------|


Chorus:

e|--------------------|--3-----------------|------------------|-----------------|
B|--1----0--1--1------|--3-----0--1--------|--1----0-1-1------|--3--1-0-1-------|
G|--0--0-------0------|--0--0--------------|--2--2-----2------|--2--------------|
D|--2----------2------|--0-----------------|--2--------2------|--3--------------|
A|--3----------3------|--2-----------------|------------------|-----------------|
E|--------------------|--3-----------------|------------------|-----------------|

e|--------------------|--3-----------------|------------------|-----------------|
B|--1----0--1--1------|--3-----3--1--------|--1----0-1-1------|--3--1-0-1--1----|
G|--0--0-------0------|--0--0--------------|--2--2-----2------|--2---------0----| 
D|--2----------2------|--0-----------------|--2--------2------|--3---------2----|
A|--3----------3------|--2-----------------|------------------|------------3----|
E|--------------------|--3-----------------|------------------|-----------------|

Verse:2

e|--------------------|--------------------|------------------|-----------------|
B|----0-1---1---------|---------3---2------|--------0--1---1--|--3---1---0--1---|
G|--0-----0-----------|------0---

London Calling Tabs by Shinedown

 Song: London Calling
 Shinedown/ Smith & Myers
 Smith + Myers, ‘(ACOUSTIC SESSIONS)’

Note: This is a first attempt at tabbing any song so more than likelyy has some obvious 
mistakes. Any corrections are welcome!

Enjoy,
lyno37!


Intro/verse

E|--------------------------------------------------|
B|-----------8-----------------------8--------------|
G|-----9--------9-----9------10---------10------10--|
D|--------9--------9-----10------10---------10------|
A|--7-----------------------------------------------|
E|--------------------------------------------------|


E|----------------------------------------------------------------------------|
B|-----------8-----------------------8----------------------------------------|
G|-----9--------9-----9------10---------10------10-------------12-------------|
D|--------9--------9-----10------10---------10----------10---------12------12-|
A|--7-----------------------------------------------10------10---------10-----|
E|----------------------------------------------------------------------------|



Chorus: strumming pattern not correct here!

E|--00000---33333---00000---33333---00000-2222222222-|
B|--00000---00000---00000---00000---00000-3333333333-|
G|--00000-0-00000-0-00000-0-00000-0-00000-2222222222-|
D|--22222-0-00000-0-22222-0-00000-0-22222-0000000000-|
A|--22222-0-22222-0-22222-0-22222-0-22222------------|
E|--------2-33333-2-------2-33333-2------------------|




Bridge?:

     pm        pm
E|---------------------|
B|--8888----8-8-8-8----|
G|--9999----10101010---|
D|--9999----10101010---|
A|--7777---------------|
E|---------------------|

*these are 10th and 8th fret together not 1 and 0!!

London Calling chords – The Clash

 The Clash-London Calling

 So many people seem to think there is a C chord in London Calling and there
 simply is not. It is the bass that plays the C (Which is the 5th instead of
 the root) while the guitar is playing the F. Once you start banging out the
 chords your ears should sort everything out. Please message me if you have
 any questions - Gharms85

This is the main rhythm guitar that is loudest in the mix. 

Intro Chords: 

Em: x 7 9 9 8 7
F: 8 8 10 10 10 8

Verse Chords:

Em: x 7 9 9 8 7
F: 8 8 10 10 10 8
G: 9 9 11 11 11 9

Chorus Chords:

Em: 0 2 2 0 0 0
G: 3 5 5 4 3 3
D: x x 0 2 3 2

Intro:

 Em Em Em Em ,  F F F F  (6x) (staccato strumming, all downstrokes) 

Verse 1: 

 Em F 
London calling to the faraway towns
     G 
Now war is declared, and battle come down
 Em F 
London calling to the underworld
 G 
Come out of the cupboard, you boys and girls
 Em F 
London calling, now don't look to us
 G 
Phoney Beatlemania has bitten the dust
 Em F 
London calling, see we ain't got no swing
 G 
'Cept for the ring of that truncheon thing

Chorus 1:

 Em G 
The ice age is coming, the sun's zooming in
 Em G 
Meltdown expected, the wheat is growing thin
 Em G 
Engines stop running, but I have no fear
 Em D  (let ring)
'Cause London is drowning, and I live by the river

Verse 2:

 Em F 
London calling to the imitation zone
 G 
Forget it, brother, you can go it alone
 Em F 
London calling to the zombies of death
 G 
Quit holding out, and draw another breath
 Em F 
London calling, and I don't wanna shout
     G 
But while we were talking, I saw you nodding out
 Em F 
London calling, see we ain't got no high
 G 
Except for that one with the yellowy eyes

Chorus 2: 

 Em G 
The ice age is coming, the sun's zooming in
 Em G 
Engines stop running, the wheat is growing thin
 Em G 
A nuclear error, but I have no fear
 Em D  (let ring)
'Cause London is drowning, and I live by the river

Interlude: 

Em F G (4x) Play the same as the verse

Chorus 2: 

 Em G 
The ice age is coming, the sun's zooming in
 Em G 
Engines stop running, the wheat is growing thin
 Em G 
A nuclear error, but I have no fear
 Em D  (let ring)
'Cause London is drowning, and I live by the river

Intro: 4x

Now get this

Verse 3: Guitar and bass same as the intro

 Em F 
London calling, yes, I was there, too
 Em F 
An' you know what they said? Well, some of it was true!
 Em F 
London calling at the top of the dial
 Em F 
After all this, won't you give me a smile?
 Em F 
London calling
 Em F Em 
I never felt so much alike [fading] alike alike alike

Kids Are Calling chords – Tripping Daisy

 Bb D# Bb C D# G5 
SUN!
 D# Bb C D#5 G    x2   
Kids are calling
num num num

         Bb 
in the sun
        Dsus4 
in the sun


 Cm G# Cm D# Bb 
One    feels in the sun
        Gm D 
in the sun
 Cm D# Bb 
One  feels in the sun
 Cm/D# Cm Bb 
what a time to feel in the sun


 D# Bb C D# D5 
kids are calling the sun
 D# Bb C D# G 
kids all follow the sun
 D# Bb C D#5 Bb 
no one's hollow in the sun

 Cm Bb 
in the sun
        C 
in the sun
        D# 
in the sun
        Bb 
in the sun
        D 
in the sun 

 Cm Bb 
One  feels in the sun
 D# Bb C D# Cm7 D#5 Bb C D# Am 
what a time to feel in the sun


 Bb C 
I know it capture me (in the sun)
                               D# 
I see it all (when I'm in the sun)
                              Bb   
I notice everything (in the sun)
                              
I see it all (when I'm in the sun)
 F5 C Cm C Bb   
I notice everything (in the sun)
 D# Bb 
I see it all (when I'm in the sun)
                               C 
I know it capture me (in the sun)
                               D# 
I see it all (when I'm in the sun)
                   Bb D# Bb 
I notice everything (in the sun)    C...

London Calling Tabs by The Clash V3

 -------------------------------------------------------------------------------
                             London Calling - The Clash
-------------------------------------------------------------------------------
: TreyTaylor
 treyt1997

Tuning: Standard Tuning

Introduction:

e|---------------------| *note: The two "--" represents one gap, but because of 
B|-8-8-8-8-8---8--8--8-| the ten I had to use two to make it clear.
G|-9-9-9-9-9---9--9--9-| Play so many times.
D|-9-9-9-9-10-10-10-10-|
A|-7-7-7-7-7---7--7--7-|
E|---------------------|

Verses:

e|------------------|
B|------1-111/3-333-| 
G|-0-0002-222/4-444-| Play so many times. (Each verse has different lengths)
D|-2-2223-333/5-555-|
A|-2-2223-333/5-555-|
E|-0-000------------|

Chorus:

e|-------3-333-------3-333-------3-333-------2-2222222-|
B|-------3-333-------3-333-------3-333-------3-3333333-|
G|-0-000-0-000-0-000-0-000-0-000-0-000-0-000-2-2222222-|
D|-2-222-0-000-2-222-0-000-2-222-0-000-2-222-----------|
A|-2-222-2-222-2-222-2-222-2-222-2-222-2-222-----------|
E|-0-000-3-333-0-000-3-333-0-000-3-333-0-000-----------|

Outro

e|-------3-333-------3-333-------3--------------------|
B|-------3-333-------3-333-------3---/------------\---|
G|-0-000-0-000-0-000-0-000-0-000-0---|    Hold    |---|
D|-2-222-0-000-2-222-0-000-2-222-0---|   The Last |---|
A|-2-222-2-222-2-222-2-222-2-222-2---|    Note    |---|
E|-0-000-3-333-0-000-3-333-0-000-3---\------------/---|

structure:

Introduction
Verse 
Chorus
Verse
Chorus
intorduction
Chorus
Intorduciotn
Verse
Outro
************************************

| /   slide up
| \   slide down
| h   hammer-on
| p   pull-off
| ~   vibrato
| +   harmonic
| x   Mute note
| b   Bend
| pb  Pre-bend
| br  Bend release
| pbr Pre-bend release
| brb Bend release bend

************************************

Calling Me chords – Alva Leigh

 Alva Leigh (http://alvaleigh.com/)

Intro:  G D A G D A G 
When the rest of the world is asleep

            D A 
Do you remember that night when you and me

 G D A G 
Pulled down the steeple of ash

              D A  
The rain was coming down, I was filthy and black?

 G D A G 
Sometimes I feel that my time

       D A  
On earth is sorta defined


         G D A G D A    
And my life,   oh it's calling me

        
         G D A G D A    
And my life,   oh it's calling me

       G D A G 
And I wonder what else it could be

           D A   
There are times when I see and don't see

 G D A G 
Sometimes I feel that I'm changed

          D A 
By those women on the hill in the rain

 G D Em D A G Em 
In this vision of earthly decay

   D A G Em 
I see that time will bear us all away

         D A               
But I'm sad I won't be here to see it fade

 G D A G D A G D A 
 And my life, oh it's calling me

        G D A G D A 
 And my life, oh it's calling me

        G D A G D A 
 And my life, oh it's calling me

 G D A  (repeat 3x) 

       G D A 
And I wonder what else it could be