Tag: cautious

The Cautious – Pages Of Your Name Tabs

 -------------------------------------------------------------------------------
                     PAGES OF YOUR NAME - The Cautious
-------------------------------------------------------------------------------
: Ritwik Krishnan

Intro:
 Form (4 bars guitar, 8 bars guitar/vocals, 24 bars guitar/vocals/bass/drums)

Guitar 1:

e|-5-------9-------12---------------|
B|-7-------9-------12---------------|
G|-6-------11------14---------------|
D|-7-------11------14---------------|
A|-5-------9-------12---------------|
E|----------------------------------|

(Dmaj7, F#sus2, Asus2)

Guitar 2:

e|-5-------9-------12---------------|
B|-7-------9-------12---------------|
G|-6-------11------14---------------|
D|-7-------11------14---------------|
A|-5-------9-------12---------------|
E|----------------------------------|

(Dmaj7, F#sus2, Asus2)

Bass:

G|------------------------------------------------------------------|
D|------------------------------------------------------------------|
A|-5-----5-5-5---5--------------------------------------------------|
E|-----------------2-----2-2-2---0-5-----5-5-5---5--7---9---7---5---|

Verse 1:
 Form (8 bars bass/drums/vocals, 8 bars guitar/bass/drums/vocals)

Guitar 1:

e|------------------------------------------------------------------------------------|
B|-------7------------------9------------------12----------------------12-------------|
G|-----6---6-------------11-----------------14----14----------------14----14----------|
D|---7-------7---7----11-----------------14----------14----14----14----------14----14-|
A|-5-----------5----9-----------------12----------------12----12----------------12----|
E|------------------------------------------------------------------------------------|

e|------------------------------------------------------------------------------------|
B|-------7------------------9--9h10p9----------12----------------------12-------------|
G|-----6---6-------------11-----------------14----14----------------14----14----------|
D|---7-------7---7----11-----------------14----------14----14----14----------14----14-|
A|-5-----------5----9-----------------12----------------12----12----------------12----|
E|------------------------------------------------------------------------------------|

(Dmaj7, F#sus2, Asus2)

Guitar 2:

e|-5-------9-------12---------------|
B|-7-------9-------12---------------|
G|-6-------11------14---------------|
D|-7-------11------14---------------|
A|-5-------9-------12---------------|
E|----------------------------------|

(Dmaj7, F#sus2, Asus2)

Bass:

G|------------------------------------------------------------------|
D|------------------------------------------------------------------|
A|-5-----5-5-5---5--------------------------------------------------|
E|-----------------2-----2-2-2---0-5-----5-5-5---5--7---9---7---5---|

Chorus:
 Form (16 bars guitar/bass/drums/vocals)

Guitar 1:

e|-5-------9-------12---------------|
B|-7-------9-------12---------------|
G|-6-------11------14---------------|
D|-7-------11------14---------------|
A|-5-------9-------12---------------|
E|----------------------------------|

(Dmaj7, F#sus2, Asus2)

Guitar 2:

e|-5--------------------------------|
B|-7--------------------------------|
G|-6--------------------------------|
D|-7--------------------------------|
A|-5--------------------------------|
E|----------------------------------|

(Dmaj7)

Verse 2 (TABS SAME AS VERSE 1):
 Form (8 bars bass/drums/vocals, 8 bars guitar/bass/drums/vocals)

Chorus (TABS SAME AS FIRST CHORUS):
 Form (16 bars guitar/bass/drums/vocals)

Bridge:
 Form (16 bars guitar/bass/drums/vocals)

Guitar 1:

e|-5-------9-------12-------9-------7---|
B|-7-------9-------12-------10------x---|
G|-6-------11------13-------11------9---|
D|-7-------11------14-------11------9---|
A|-5-------9-------14-------9-------7---|
E|-----------------12-------------------|

(Dmaj7, F#sus2, E, F#min, E)

Guitar 2:

e|-5-------9-------12-------9--

The Cautious – Mislead Tabs

 -------------------------------------------------------------------------------
                           MISLEAD - The Cautious
-------------------------------------------------------------------------------
: Ritwik Krishnan

Intro:
 Form (4 count in, 32 bars guitar/bass/drums)

Guitar 1 (CAPO 4):

e|-3-------3-------|
B|-3-------3-------|
G|-0-------0-------|
D|-2-------0-------|
A|-3-------2-------|
E|-x-------3-------|

(Cadd9, G)

Guitar 2 (CAPO 4):

e|-3-------3-------|
B|-3-------3-------|
G|-0-------0-------|
D|-2-------0-------|
A|-3-------2-------|
E|-x-------3-------|

(Cadd9, G)

Bass:

G|---------------------------------------------------------------------|
D|----------------------9------------------------------------9---9-----|
A|-7\0--------------7-------7-7-6------------------------9---------9---|
E|--------------------------------9-7\0--------------7-----------------|

Verse 1:
 Form (32 bars rhythm guitar/bass/drums/vocals, 32 bars lead and rhythm guitar/bass/drums/vocals)

Guitar 1 (CAPO 4):
 [only last 32 bars]

e|-------------------------------------------------------|
B|-----------3---------------------------3---------------|
G|-------0-------2-----2-----2/4-------0----2----2/4/2---|
D|---0h2---------------------------0h2-------------------|
A|-------------------------------------------------------|
E|-------------------------------------------------------|

e|-------------------------------------------------------|
B|-----------3-------------------------------------------|
G|-------0-------2-----2-----2/4---2p0---0--2----2p0-----|
D|---0h2-------------------------------2-----------------|
A|-------------------------------------------------------|
E|-------------------------------------------------------|

Guitar 2 (CAPO 4):

e|-3-------3-------|
B|-3-------3-------|
G|-0-------0-------|
D|-2-------0-------|
A|-3-------2-------|
E|-x-------3-------|

(Cadd9, G)

Bass:

G|---------------------------------------------------------------------|
D|---------------------------------------------------------------------|
A|-7\0----------------------7-7-6---------------------------------9----|
E|--------------------------------9-7\0-------------------------7------|

Chorus:
 Form (48 bars guitar/bass/drums/vocals)

Guitar 1 (CAPO 4):

e|-3-------3-------|
B|-3-------3-------|
G|-0-------0-------|
D|-2-------0-------|
A|-3-------2-------|
E|-x-------3-------|

(Cadd9, G)

Guitar 2 (CAPO 4):

e|-3-------3-------|
B|-3-------3-------|
G|-0-------0-------|
D|-2-------0-------|
A|-3-------2-------|
E|-x-------3-------|

(Cadd9, G)

Bass:

G|---------------------------------------------------------------------|
D|----------------------9------------------------------------9---9-----|
A|-7\0--------------7-------7-7-6------------------------9---------9---|
E|--------------------------------9-7\0--------------7-----------------|

Post-Chorus [CUT TIME]:
 Form (32 bars guitar/bass/drums)

Guitar 1 (CAPO 4):

e|-3-------3-------3---------------|
B|-3-------3-------3---------------|
G|-2-------0-------0---------------|
D|-0-------2-------0---------------|
A|-3-------3-------2---------------|
E|-x-------x-------3---------------|

(D/C, Cadd9, G)

Guitar 2 (CAPO 4):

e|-3-------3-------3---------------|
B|-3-------3-------3---------------|
G|-2-------0-------0---------------|
D|-0-------2-------0---------------|
A|-3-------3-------2---------------|
E|-x-------x-------3---------------|

(D/C, Cadd9, G)

Bass:

G|---------------------------------------------------------------------|
D|---------11---------------9--------------------------------9---9-----|
A|-9-----9----9---9-7-----7---7---7----------------------9---------9---|
E|----------------------------------7\0--------------7-----------------|

Verse 2:
 Form (64 bars lead and rhythm guitar/bass/drums/vocals)

Guitar 1 (CAPO 4):

e|-------------------------------------------------------|
B|-----------3---------------------------3---------------|
G|-------0--

The Cautious – Mind Race Tabs

 -------------------------------------------------------------------------------
                         MIND RACE - The Cautious
-------------------------------------------------------------------------------
: Ritwik Krishnan

Intro:
 Form (4 bars guitar)

Guitar 1:

e|-----------------------------------------------------|
B|-----------------------------------------------------|
G|-----7-----6------11------------11-----7-----4-------|
D|---0-----0------0-------------0------0-----0---------|
A|-----------------------------------------------------|
E|-7-----5-----10------------10------7-----3-----------|

Verse 1:
 Form (8 bars guitar/bass/drums/vocals)

Guitar 1:

e|-----------------------------------------------------|
B|-----------------------------------------------------|
G|-----7-----6------11------------11-----7-----4-------|
D|---0-----0------0-------------0------0-----0---------|
A|-----------------------------------------------------|
E|-7-----5-----10------------10------7-----3-----------|

Bass:

G|---------------------------------------------------|
D|---------------------------------------------------|
A|---------------------------------------------------|
E|-7-----5-----10-----------10-----7-----3-----------|

Chorus:
 Form (8 bars guitar/bass/drums/vocals)

Guitar 1:

e|---------------------------------------------------|
B|---------------------------------------------------|
G|-----4-----4-----6-----6-----7------11-----4-----4-|
D|---0-----0-----0-----0-----0------0------0-----0---|
A|---------------------------------------------------|
E|-3-----3-----5-----5-----7-----10------3-----3-----|

e|-------------------------------------------------------|
B|-------------------------------------------------------|
G|-----4-----4-----6-----6-----7------11------14------14-|
D|---0-----0-----0-----0-----0------0-------0-------0----|
A|-------------------------------------------------------|
E|-3-----3-----5-----5-----7-----10------14------14------|

e|---------------------------------------------------|
B|---------------------------------------------------|
G|-----4-----4-----6-----6-----7------11-----4-----4-|
D|---0-----0-----0-----0-----0------0------0-----0---|
A|---------------------------------------------------|
E|-3-----3-----5-----5-----7-----10------3-----3-----|

e|-------------------------------------------------|
B|-------------------------------------------------|
G|-----4-----4-----6-----6-----7-----6-----4-----4-|
D|---0-----0-----0-----0-----0-----0-----0-----0---|
A|-------------------------------------------------|
E|-3-----3-----5-----5-----7-----5-----3-----3-----|

Bass:

G|--------------------------------------------------|
D|--------------------------------------------------|
A|--------------------------------------------------|
E|-3-----3-----5-----5-----7-----10-----3-----3-----|

G|--------------------------------------------------|
D|--------------------------------------------------|
A|--------------------------------------------------|
E|-3-----3-----5-----5-----7-----10-----2-----2-----|

G|--------------------------------------------------|
D|--------------------------------------------------|
A|--------------------------------------------------|
E|-3-----3-----5-----5-----7-----10-----3-----3-----|

G|-------------------------------------------------|
D|-------------------------------------------------|
A|-------------------------------------------------|
E|-3-----3-----5-----5-----7-----5-----3-----3-----|

Post Chorus:
 Form (4 bars guitar/bass/drums)

Guitar 1:

e|-------------------------------------------------|
B|-------------------------------------------------|
G|-----4-----4-----3-----3-----2-----2-----2-----2-|
D|---0-----0-----0-----0-----0-----0-----0-----0---|
A|-------------------------------------------------|
E|-3-----3-----3-----3-----2-----2-----2-----2-----|

Bass:

G|-----------------------------------------------------|
D|----------------------------