Tag: chain

Chain Gang chords by Johnny Cash

Key: A
[Intro]
A  D  E  A
[Verse 1]
A                D
I was just a kid roaming around
E                A
Traveling thru a little old town
A                        D
A man walked up and said come with me
A    E                 A
Your broken son that's vagrancy
A                D
A care-free lad that loved to roam but
E                A
Lord I wish I'd-a stayed at home
A                        D
The way it looks I'll probably hang
A    E                 A
Cause there ain't no hope on a chain gang
[Chorus]
D                A
I dig that ditch I chop that corn
E                  A
I curse the day that I was born
A                           D
I believe it's better for a man to hang
D       E                    A
Than to work like a dog on a chain gang
[Break 1]
A  D  E  A
[Verse 2]
A                D
The guard stands there with a great big gun
E                A
I bet he'd love to see me run
A                        D
And I guess I probably will someday
A    E                 A
I'd rather be dead than to live this way
A                D
He's well-fed and he's six-foot tall
E                A
And he's the meanest of them all
A                        D
He cracks that whip and he swings that cane
A    E                 A
That sun must've touched his brain
[Chorus]
D                A
I dig that ditch I chop that corn
E                  A
I curse the day that I was born
A                           D
I believe it's better for a man to hang
D       E                    A
Than to work like a dog on a chain gang
[Break 2]
A  D  E  A  D  E  A
[Verse 3]
A                D
I got a gal back home that's sweet and kind
E                A
But she's been waiting a long long time
A                        D
I just told her to forget my name
A    E                 A
I won't ever live down the shame
A                D
Lord deliver me from his hole
E                A
Before I lose my mind and soul
A                        D
The flesh gets weak and the back gets broke
A    E                 A
There ain't no cause to laugh and joke
[Chorus]
D                A
I dig that ditch I chop that corn
E                  A
I curse the day that I was born
A                           D
I believe it's better for a man to hang
D       E                    A
Than to work like a dog on a chain gang
E                    A
Work like a dog on a chain gang
E                    A
Work like a dog on a chain gang

Ball And Chain chords – Murder by Death

 Ball and Chain
Murder by Death
After years and years of taking, I have finally contributed.
Em/B 1 X X X 4 5 3
This version is tabbed with 1 step down tuning, as performed acoustically. (youtu.be/adE6sW1Oh4Y)
Intro
Am Dm Em/B Dm E Dm Em/B Dm E Am E Am Am Dm Em/B Dm E 
When I fall, I         fall hard.
Dm Dm Em/B Dm E 
My body b--------ruises at your touch,
Am E 
my  ankles bear these lover's scars.
Am Dm Em/B Dm E 
The  weight is heavy, but         necessary.
Dm Dm Em/B Dm Am E Am 
You'll  never change          my ball and chain. 
Chorus
Dm Am 
My ball and chain you  will remain.
Em Am E Am 
You've always been my ball and chain. 
Guitar Solo
Am Dm Em/B Dm E 
She lingers somewhere I         cannot find.
DM Dm Em/B Dm 
My lover stands         upon the shore,
Am E 
it's me she should be waiting for.
Am Dm Em/B Dm E 
The  distance binds us          locked in twain.
Dm Dm Em/B Dm Am E Am 
You will remain         my ball and chain.
Chorus
Dm Am 
My ball and chain you  will remain.
Em Am E Am 
You've always been my ball and chain. 
Interude
Am Dm E Am Am Dm E Am F Am E Am F E Am Am Dm Am Dm E 
Chorus
Dm Am 
My ball and chain you  will remain.
Em Am E Am 
You've always been my ball and chain. 

You Trip Me Up chords – The Jesus And Mary Chain

 You Trip Me Up - The Jesus and Mary Chain
Tuning: Half Step Down (Eb Ab Db Gb Bb Eb)
G C D 
Sometimes
G C D 
I walk sideways
G C D 
To avoid you
G C D 
When I've annoyed you
G C D 
Love's like
G C D 
The mighty ocean
G C D 
When it's frozen
G C D 
That is your heart
G C D 
What would I be
G C D 
If I could be free
G C D 
I couldn't even walk
G C D 
You trip me up
G C D 
But you break me in two
G C D 
And you throw me away
G C D 
And you spit on my head
G C D 
You trip me up
G C D 
And you break me in two
G C D 
And you throw me away
G C D 
Knock me on my back
G C D 
I'll send a heart attack
G C D 
I'd like to trip you up
G C D 
I'd like to trip you up
G C D 
I'd like to trip you up
G C D 
I'd like to trip you up
G C D 
I'd like to trip
G C D 
I'd like to trip
G C D 
I'd like to trip you up
G C D 
I'd like to trip you up

Blackbird Chain Tabs by Beck

 -------------------------------------------------------------------------------
Beck - Blackbird Chain      
-------------------------------------------------------------------------------
: Tim van Kester
Tuning: Standard
----------
Song from his new album 'Morning Phase'. I hope the chords are right. If not,
feel free to comment!
----------
Intro
----------
e|----------------------------------------------------2-3-3-3-3--------------|
B|---0-0---0-0---0-0---0------3-3---3-3---1-1---1-0---3-3-3-3-3---3-3-3-3-3--|
G|---0-0---0-0---0-0---0------0-0---0-0---2-2---2-0---2-2-2-2-2---0-0-0-0-0--|
D|---0-0---0-0---0-0---0------2-2---2-2---3-3---3-2-0-0-0-0-0-0---2-2-2-2-2--|
A|----------------------------2-2---2-2---------------------------2-2-2-2-2--|
E|-3-----3-----3-----3---2--0-----0-----1-----1-----------------0------------|
e|-3~--|
B|-3~--|
G|-0~--|
D|-2~--|
A|-2~--|
E|-0~--|
----------
'Pre-verse'
----------
e|-3-2-0------|
B|-------0-3--|
G|------------|
D|------------|
A|------------|
E|------------|
----------
Verse
----------
Basically two guitars: acoustic and electric (lead). I won't tab
whole strumming patterns unless they are interesting. 
(1)  Give me traces of your lifeblood flowing in a loving cup 
e|-3-----------------------0----------------------2----------|
B|-0-----------------------0----------------------3----------|
G|-0-----------------------0----------------------4----------|
D|-0-----------------------2----------------------4----------|
A|-2-----------------------2----------------------2----------|
E|-3-----------------------0---------------------------------|
(2)
e|--------------------------------------------------------------------------|
B|-----------------------------------------------------------------7--------|
G|-----------------------------------------------------------------7h9-7----|
D|---------------------------------------------------------------9-----9----|
A|-------------------------------------------------------------9------------|
E|-------------------------0----------------------7-------------------------|
(1)  And tell me I'm dream dream dream dreaming and I'll never wake up 
e|-------------------------------1-------------------------------------------|
B|-3-----------------------------1--------------------------1-1-----1-1------|
G|-3-----------------------------2--------------------------2-2-----2-2------|
D|-3-----------------------------3--------------------------2-2-----2-2------|
A|-1-----------------------------3-----------------------0-------0-----------|
E|-------------------------------1-------------------------------------------|
(2)
e|-------------------------------------------------------0-------------------|
B|-6------------------------------------1----------------1-------------------|
G|-7----------------------------------2-----2------------2-------------------|
D|-8--------------------------------3---------3----------2-------------------|
A|-------------------------------------------------------0-------------------|
E|-------------------------------1-------------------------------------------|
(1)  A keepsake in a dresser drawer from who-knows-where 
e|-3---------------------0---------------2----------|
B|-0---------------------0---------------3----------|
G|-0---------------------0---------------4----------|
D|-0---------------------2---------------4----------|
A|-2---------------------2---------------2----------|
E|-3---------------------0--------------------------|
(2)
e|----------------------------------------------------------------------|
B|----------------------------------------------------------------------|
G|----------------------------------------------------------------------|
D|----------------------------------------------------------------------|
A|--------------------------------------------------------------

Break Every Chain chords – Tasha Cobbs

 Verse 1
D A E 
There is power in the name of Jesus
D A E 
There is power in the name of Jesus
D A E 
There is power in the name of Jesus
F#m D E A 
To break every chain, break every chain, break every chain
F#m D E A 
To break every chain, break every chain, break every chain
Verse 2
D A E 
There's an army rising up
D A E 
There's an army rising up
D A E 
There's an army rising up
F#m D E A 
To break every chain, break every chain, break every chain
F#m D E A 
To break every chain, break every chain, break every chain
Vamp
A2 C#m D E 
I hear the chains falling
A2 C#m D E 
I hear the chains falling

Kingdom Hearts Re Chain Of Memories – Just Wondering Tabs by Misc Computer Games

 Here's the riff that repeats throughout the piece
e|---------------------------------|--------------------10--|
G|--6-8-9-6------------------------|--6-8-9-6-------8-------|
B|------------5---7-------5--------|------------5-----------|
D|--------------------6-----5------|------------------------|
A|---------------------------------|------------------------|
E|------------------------------8--|------------------------|
And here's the bass that can be played alongside it
e|---------------------------------|------------------------|
G|---------------------------------|------------------------|
B|---------------------------------|------------------------|
D|---------------------------------|------------------------|
A|--------3------------------------|--------3---------------|
E|--1------------------------------|--1------------3--------|
It's quite an easy piece and very repetitive 

The Chain Tabs by Fleetwood Mac V2

 Fleetwood Mac
Rumours
The Chain
Capo on Second fret DADGBD
Chords
D7:000212---------|
D2/c 030230       |   
G/b x20030        |
Gm: 010030        |---Capo 2
D2:000230         |
power A:555xxx    | 
IDK: 030033-------|
The intro is the same chord with four variation riffs
play order riff 1, riff 2 riff 1, riff 3, riff 3, riff 4, riff 3, Main riff
Intro   D7               D7                      D7
D---------2-|       D-------------|       D-----------------|
B-----1-----|       B-----1---1h3-|       B-----1---1---1h3-|
G-------2---|riff 1 G-------2-----|Riff 2 G-------2---2-----|Riff 3
D---0-------|       D---0---------|       D-----------------|
A-----------|       A-------------|       A-----------------|
D-0---------|       D-0-----------|       D-----------------|
Still D7               D2\c 
D---------2-----|       D--------------0-|
B-----1-----1h3-|       B-----3------3-3-|
G-------2-------|riff 4 G------------2-2-|Main riff
D---0-----------|       D---0----------0-|
A---------------|       A-------b3p0---0-|
D-0-------------|       D-0------------0-|
D2\c                      G/b     Gm              D2\c
D---------------------5---3v--------------------------------------|
B-----3------3--------------------3-3-------3-----------3-----3---|
G------------2-------------------0-0-0-----0------------------2---|
D---0---------------0---0-----------------------------0-----------|
A-------b3p0-------------------2------2--1---------------b3p0-----|
D-0-------------3s5---------------------------b3p0--0-------------|
D2\c                      G/b     Gm              D2\c
D---------------------5---3v--------------------------------------|
B-----3------3--------------------3-3-------3-----------3----6----|
G------------2-------------------0-0-0-----0--------------2s5-7---|
D---0---------------0---0-----------------------------0-----------|
A-------b3p0-------------------2------2--1------------------------| 
D-0-------------3s5---------------------------b3p0--0-------------|
Power A       D2         Gm               Idk
D-X-X-X-----0--0-0--0-0-0-0-0-0-3p0-0-0-0-0-0-3p0-0-0-0-0-0-|
B-X-X-X-----3--3-3--3-3-3-3-3-3-3-3-3-3-3-3-3-3-3-3-3-3-3-3-|
G-X-X-X--8X-2--2-2--0-0-0-0-0-0-0-0-0-0-0-0-0-0-0-0-0-0-0-0-|
D-5-X-X-----0--0-0--0-0-0-0-0-0-0-0-0-0-0-0-0-0-0-0-0-0-0-0-|-2x
A-5-X-X-----0--0-0--1-1-1-1-1-1-3-3-3-3-3-3-3-0-0-0-0-0-0-0-|
D-5-X-X-----0--0-0--0-0-0-0-0-0-0-0-0-0-0-0-0-0-0-0-0-0-0-0-|
you dont... still   Saying...   Never break...Never Break..
you will... Hear you...
D2\c                      G/b     Gm              D2\c
D---------------------5---3v--------------------------------------|
B-----3------3--------------------3-3-------3-----------3-----3---|
G------------2-------------------0-0-0-----0------------------2---|-2X
D---0---------------0---0-----------------------------0-----------|
A-------b3p0-------------------2------2--1---------------b3p0-----|
D-0-------------3s5---------------------------b3p0--0-------------|
D2\c                      G/b     Gm              D2\c
D---------------------5---3v--------------------------------------|
B-----3------3--------------------3-3-------3-----------3----6----|
G------------2-------------------0-0-0-----0--------------2s5-7---|
D---0---------------0---0-----------------------------0-----------|
A-------b3p0-------------------2------2--1------------------------|
Power A       D2         Gm               Idk
D-X-X-X-----0--0-0--0-0-0-0-0-0-3p0-0-0-0-0-0-3p0-0-0-0-0-0-|
B-X-X-X-----3--3-3--3-3-3-3-3-3-3-3-3-3-3-3-3-3-3-3-3-3-3-3-|
G-X-X-X--8X-2--2-2--0-0-0-0-0-0-0-0-0-0-0-0-0-0-0-0-0-0-0-0-|
D-5-X-X-----0--0-0--0-0-0-0-0-0-0-0-0-0-0-0-0-0-0-0-0-0-0-0-|-3x
A-5-X-X-----0--0-0--1-1-1-1-1-1-3-3-3-3-3-3-3-0-0-0-0-0-0-0-|
D-5-X-X-----0--0-0--0-0-0-0-0-0-0-0-0-0-0-0-0-0-0-0-0-0-0-0-|
you dont... still   Saying...   Never break...Never Break..
you will.

Never Understood chords – Jesus And Mary Chain

 D A G               
I think I'm going back to school
Cause I'm tired of being a fool
And I'm tired of playing it cool
I think I'm going back to school
I never understood the weather man
I never understood the moon
Why don't you pour me out a glass of wine
D A E G 
Why don't you pour me out
D A G 
In the days before America
In the days before priests
In the days before Rolling Stones
In the days before speech
Everybody hates the President
Everybody loves the Queen
Break the planes and close the planet down
D A E G 
Why don't you break with me
D A G  x 5
D A E G D D A G 
I think I'm going out of style
I think I've known it for a while
I think I've known it with a smile
D A E 
I think I'm going home
G D  end