Tag: cheap

Never Had A Lot To Lose chords – Cheap Trick

 -------------------------------------------------------------------------------
                             Never Had A Lot To Lose-Cheap Trick
-------------------------------------------------------------------------------
:Nick V.
BlindTerry333

From 1988's "Lap of Luxury"

Tuning:EADGBE

E* [07x9xx]


Intro [4x]
                                   Oh, oh, oh
e|---------------------------------------------------------------------------|
B|------------------------------9--------------------------------------------|
G|-4---4---4---4---4---4--------9--------------------------------------------|
D|-4---4---4---4---4---4--------9--------------------------------------------|
A|-2---0---2---0---2---2--------7--------------------------------------------|
E|------------------------------0--------------------------------------------|


Verse:

e|---------------------------------------------------------------------------|
B|-----9-------9-------9-------------------9--9------------------------------|
G|-4---9---4---9---4---9---4---------------9--9------------------------------|
D|-4---9---4---9---4---9---4---12--11--9---9--9------------------------------|
A|-2---7---2---7---3---7---2---10---9--7---7--7------------------------------|
E|-----0-------0-------0---------------0---0--0------------------------------|


B5                 E[VII]      B5           E[VII}
I don't need no money, honey, fortune or fame
          B             E[VII]            B5 G F# E5   E[VII] E[VII]
'Cause I got all the riches, baby that one man can claim

 B5 G F# E5      E[VII]  E[VII]
So take off your coat and close the door
 B5 G F# E5    E[VII] E[VII]  
Forget your foolish pride
 B5 G F# E5 
I'm not afraid of fallin' down
    B5 G F# E5   E[VII] E[VII}
Or stayin' up all night

 A 
You're gonna see it my way now don't try to bring me down
 C# 
My life's a circus, an insane chain of circumstances


Never had a lot to lose    Oh, oh, oh
Never let it slow me down  Oh, oh, oh
Never had a lot of love now, honey
I never had a lot to lose
e|-------------------------------------------------------------------------|
B|------------------------------9------------------------------------------|
G|-4---4---4---4---4---4--------9------------------------------------------|
D|-4---4---4---4---4---4--------9------------------------------------------|
A|-2---0---2---0---2---2--------7------------------------------------------|
E|------------------------------0------------------------------------------|


B            E[VII]                    B5       E[VII]     
I can't explain the time it takes to make you understand
         B             E[VII]           B5 G F# E5  E[VII] E[VII]
I know you'll get to like it if you only take a chance
 B5 G F# E5    E[VII]     B5 G F# E5    E[VII] E[VII]
I hope I get some time tonight,to see you comin' 'round
 B5 G F# E5 B              E[VII]
What can I give you in return for one night on the town

 A 
You're gonna see it my way now, don't try to bring me down
 C# 
My life's a circus, an insane chain of circumstances


Never had a lot to lose    Oh, oh, oh
Never let it slow me down  Oh, oh, oh
Never had a lot of love now, honey
I never had a lot to lose
e|-------------------------------------------------------------------------|
B|------------------------------9------------------------------------------|
G|-4---4---4---4---4---4--------9--------------------

When The Lights Are Out chords – Cheap Trick

 -------------------------------------------------------------------------------
                          When the Lights Are Out-Cheap Trick
-------------------------------------------------------------------------------
:Nick V.
BlindTerry333

Slade cover from "The Latest".

Tuning:EADGBE


 F G 
If the light is out and been sitting pretty
 Bb F 
Scream that pitiful scream
 F G 
When the light is out will be warm and willing
 Bb F 
Better watch were I lean


           Am Bb 
When you gaze into a crystal ball
           Am Bb 
You'll see nothing's gonna change at all
          Am Bb 
You'll see nothing's gonna happen over night
      C 
So please


                         F C F Bb 
When the lights are out
                         F C F Bb 
When I hear you sigh
               F Bb 
Let me feel your warm breath on my neck
                   C 
It makes me hit the sky


                         F C F Bb 
When the lights are out
                         F C F Bb 
When I hear you sigh
               F Bb                     
Let me feel your warm breath on my neck
                   C 
It makes me hit the sky


 F G 
When your will is burned you can blow me 
 Bb F 
Blow me beautiful blow
 F G 
If a nail is stuck you can turn me under
 Bb F 
Wind up ready go


           Am Bb 
When you gaze into a crystal ball
           Am Bb 
You'll see nothing's gonna change at all
          Am Bb 
You'll see nothing's gonna happen over night
      C 
So please


                         F C F Bb 
When the lights are out
                         F C F Bb 
When I hear you sigh
               F Bb 
Let me feel your warm breath on my neck
                   C 
It makes me hit the sky


                         F C F Bb 
When the lights are out
                         F C F Bb 
When I hear you sigh
               F Bb 
Let me feel your warm breath on my neck
                   C 
It makes me hit the sky


                         F C F Bb  
When the lights are out
                        


Questions, comments, insults...BlindTerry333

Never Run Out Of Love chords – Cheap Trick

 -------------------------------------------------------------------------------
                          Never Run Out of Love-Cheap Trick
-------------------------------------------------------------------------------
:Nick V.
BlindTerry333

From 1994's Woke Up With a Monster.

Tuning:EADGBE


[Riff #1]        
e|------------0----------------------------------------------------------------|
B|------------0----------------------------------------------------------------|
G|------------1----------------------------------------------------------------|
D|------------2----------------------------------------------------------------|
A|------------2----------------------------------------------------------------|
E|-0-3b-0-3b--0----------------------------------------------------------------|


Verse:
        E 
I will never run out of love for you
      Asus2 Bsus4 
I'll never run out of love

 B 
Midnight, don't seem right
 E 
I lie awake just wonderin' about you
B                        [Riff #1]
Wound up much too tight
 E 
Can't think about livin' without you
        C#m E        
The day you put your spell on me
       C#m F#m 
I guess I was the last to know
       Bsus B 
So, please remember before you go


Chorus:
          E     
That I will never run out of love for you
       Asus2 Bsus4 
I'll never run out of love
           E 
I will never run out of love for you
       Asus2        
Got more than enough, more than enough
              E Bsus 
No, I will never run out of love


Verse:
 B 
For so long, deep and strong 
 E 
Love flowed mighty as a river
B                     [Riff #1]
Long road, heavy load 
 E 
Hard times couldn't keep us apart
          C#m E 
Never thought you would break the promise, oh no
          C#m F#m 
Now it seems there's a part of me that just can't let you go
      Bsus B 
So, please remember that you can come back home


Chorus:
          E     
I will never run out of love for you
       Asus2 Bsus4 
I'll never run out of love
           E 
I will never run out of love for you
       Asus2        
Got more than enough, more than enough
              E Bsus 
No, I will never run out of love\


Bridge:
 C#m 
No, no baby, don't you leave me
 A  
No, no baby, don't go
 C#m 
No, no baby, if you run away
 A 
I still hope you know
     Bsus B 
I need you so
     Bsus B 
I can't take no more


Chorus:
          E     
I will never run out of love for you
       Asus2 Bsus4 
I'll never run out of love
           E 
I will never run out of love for you
       Asus2        
Got more than enough, more than enough
              E Bsus 
No, I will never run out of love

          E     
I will never run out of love for you
       Asus2 Bsus4 
I'll never run out of love
           E 
I will never run out of love for you
       Asus2        
Got more than enough, more than enough
              E Bsus 
No, I will never run out of love


   Asus2 Bsus4 Bsus 
e|-0-----0---------------------------------------------------------------------|
B|-0-----0-------5-------------------------------------------------------------|
G|-2-----4-------4-------------------------------------------------------------|
D|-2-----4--

Talk Is Cheap chords by Chet Faker V2

 Chet Faker - Talk Is Cheap
Capo 3rd
Standard tuning
Enjoy!

Intro: x4 (Let the bass notes ring)
e|-------------------------------------------------|
B|-1p0-----------------1p0-------------------------|
G|-----2p0-2-0---0-2-------2p0-2p0---0-------------|
D|-------------2-------------------2---------------|
A|-0-------------3---------------------------------|
E|---------------------3---------------------------|

[Verse 1:]
 Am Cmaj7   
Oh so, your weak rhyme
 G D 
You doubt I'll bother reading into it
   Am          
I probably won't
 Cmaj7 
Left to my own devices
 G D 
But that's the difference in our opinions

[Pre-Chorus:]
 Am 
You're a mouthful
 Cmaj7 G D 
That amounts for another week on my own
 Am Cmaj7 
Now I'm a novel made resourceful
 G D 
I start a chain with my thought

[Chorus:]
 Am Cmaj7 
Talk is cheap, my darling
             G D 
When you're feeling right at home
         Am Cmaj7 
I wanna make you move with confidence
         G D 
I wanna be with you alone

      Am Cmaj7 
Said help me help you start it
            G D 
You're too comfortable to know
 Am Cmaj7 
Throwing out those words
               G D 
No, you gotta feel it on your own

[Verse 2:]
 Am 
Cold pain
   Cmaj7 
I cannot sustain it
 G 
That's what I'm thinking
 D 
Not what I'm drinking
   Am 
I hold up my ways
       Cmaj7 
These thoughts are pervasive
 G 
It's not a statement
     D 
But peace can be evasive


[Pre-Chorus]

[Chorus] x2

Too Much chords – Cheap Trick

 -----------------------------------------------------------------------------
                            Too Much - Cheap Trick
-----------------------------------------------------------------------------
:Nick V.
BlindTerry333

Tuning:EADGBE

Second track from 2003's "Special One".

 A E D 
Don't wanna see you again
                           A            
You're takin' a little too much
 A E D 
Maybe it's my fault...okay
                       A            
You've taken away too much
 A E D 
Swimmin' in sorrow all day
                           A 
Well, fakin' it doesn't do much.
 A E D 
Maybe you've fallen from grace
                          A 
It's takin' a little too much.

 A E D 
I couldn't feel you, my friend
                                 A E 
You're makin' a lie of your love, my love
 D A    
Come on, now you've taken a little too much
 E 
Too much


 Bm G D A 
I..I swear-you've had enough
             Em               
Diamonds and pearls
   G D A Bm          
In time, you've taken all mine

 A E D 
I couldn't feel you my friend
                           A 
You've taken a little too much.
 A E D 
Don't wanna hold you again,
                             A 
And fall for the tricks in your touch.
 A E D 
No one can charm like you can
                                A 
You're makin' a lie of our love, my love

 Bm G 
You'll be there without a care
           Em 
I'll go alone
 G D F#m 
I'll fall into life all over-r-r-r again.

            Bm 
In time I will find a girl 
 F#m A Bm 
Who knows just how to be kind.
 F#m Bm A     
Some days the power's so bright-my love
 Bm D A 
I can't find no easy way out.

 Bm G D A Em 
I..I swear-a light, a voice, tells me to stop.
  G 
Something inside screamed out
       D A 
Get my life back again.

 A E D 
Don't wanna see you my friend
                            A 
You've taken a little too much.
 A E D 
Maybe it's my fault...okay
                        A 
You've taken away too much.

 A E D 
I couldn't feel you my friend
                             A          
'Cause none of your riches mean much.
 A E D 
I couldn't stand to pretend,
                            A 
You're makin' a lie of our love.
 A E D 
 My love--come on, come on,
                                  A 
 You're takin' a little too much, too much.
 A E D 
 La la la la la la la la la


Mandocello Tabs by Cheap Trick

                             Mandocello- Cheap Trick
-----------------------------------------------------------------------------
:Nick V.
BlindTerry333

"Mandocello" comes from CT's 1977 self titled album.  The name, of course, is named 
after the mandocello instrument that is used in the song.  In C, just like a mandolin.  This 
is my version for guitar.


Intro (Figure #1)
e|-------------------------------------------------------------------------|
B|-------1------1--3---1--0--1---------------------------------------------|
G|-----0------0----0---0--0--0---------------------------------------------|
D|---2------2------2---2--2--2---------------------------------------------|
A|-3------3--------3---3--3--3---------------------------------------------|
E|-------------------------------------------------------------------------|

e|-----------------------------------------------------------------------|
B|-------1------1--3---1--0----------------------------------------------|
G|-----0------0----0---0--0----------------------------------------------|
D|---2------2------2---2--2----------------------------------------------|
A|-3------3--------3---3--3----------------------------------------------|
E|-----------------------------------------------------------------------|

Figure #2 (verses...listen for timing)

C (x3201x) C/A (x0201x) C/B (x2001x) C/A  C  C/A  C  C/A  C/B  C

Eb (x68xxx) G (x1012xx) Bb (x13xxx) C (x35xxx)

C  C/A   C/B  C/A  C  C/A  C  C/A  C/B  C

Eb  G  Bb  C

Figure #3 ("you're a million miles away or you're here")
e|--------------------------------------------------------------------------|
B|--------------------------------------------------------------------------|
G|--------------------------------------------------------------------------|
D|---2-3-----2-3----2-3-----------------------------------------------------|
A|-1------0--------------3--------------------------------------------------|
E|---------------4----------------------------------------------------------|


Bridge #1

Bb                        Gm
Look at me like I look at you
Bb                        Gm
Think of me like I think of you
Bb                        Gm
Speak to me like I spoke to you
Am                           C
Dream of me, how I dream of you

Bridge #2

C                Bb              G#
We can go down slowly like the rain
C               Am               G#
I could leave and be with you again, oh
Am                       G#          C
I could be your lover, let's pretend, oh


Solo (play Figure #2)

C (x3201x) C/A (x0201x) C/B (x2001x) C/A  C  C/A  C  C/A  C/B  C

Eb (x68xxx) G (x1012xx) Bb (x13xxx) C (x35xxx)

Outro
e|---------------------0-----0---------------------------------------------|
B|-------1------1--3---1--0--1---------------------------------------------|
G|-----0------0----0---0--0--0---------------------------------------------|
D|---2------2------2---2--2--2---------------------------------------------|
A|-3------3--------3---3--3--3---------------------------------------------|
E|-------------------------------------------------------------------------|

e|---------------------0-------------------------------------------------|
B|-------1------1--3---1--0----------------------------------------------|
G|-----0------0----0---0--0----------------------------------------------|
D|---2------2------2---2--2----------------------------------------------|
A|-3------3--------3---3--3----------------------------------------------|
E|-----------------------------------------------------------------------|

Questions, comments, insults...BlindTerry333

O Claire chords – Cheap Trick

 ----------------------------------------------------------------------------
                             O Claire - Cheap Trick
----------------------------------------------------------------------------
:Nick V.
Blindterry333

Tuning:EADGBE

This is "O Claire" from "Rockford" and not "Oh Claire" from "Heaven Tonight".


Keyboard Intro (I prefer playing it like this but it can just as well with the open 
chords...play each chord twice)

C (81010988) Gm (x 10 12 12 11 10) F (x 8 10 10 10) Am (5 7 7 5 5 5)

 C Gm 
Bye bye love goodbye
 F Fm 
See you on the other side
 C Gm 
Bye bye love goodbye
 F Fm 
I'll see you on the other side

 C Gm 
Hurry on home to bed
 F Am Dm Am F 
O Claire you're much younger than I'd ever hoped to be
 Am Dm 
O Claire it's so lonely when you're not there
 Am Dm 
Anyone can take me where
 Am Dm 
The places that they weren't there
          C 
O Claire

 C Gm 
I hear your heart from here
 F Am Dm Am F 
O Clair, you're much stronger than I'd ever hoped to be
 Am Dm 
I swear, got a face beyond compare
 Am Dm 
So lonely when you're not there
 Am Dm Am 
I'm content to watch and stare
         C 
O Claire


 C Am Em 
Just between the two of us
  F Am C 
Something 'tween the two of us
 C Am Em 
Is more than just the two of us
 F Am C 
Just between the two of us
 Am F C 
Oh, my love goodbye
 Am F C 
Oh, my love goodbye

 C Gm 
Hurry on home to bed
 F Am Dm Am F 
Claire you're much stronger than I'd ever hoped to be
 Am Dm 
O Claire the nights when you're not there
 Am Dm 
Is more than I can bear
 Am Dm Am 
Something only we can share
          C 
O Claire

 C Am Em 
Just between the two of us
 F Am C 
Something 'tween the two of us
 C Am Em 
Is more than just the two of us
 F Am C 
Just between the two of us
 Am F C 
Oh, my love goodbye
 Am F C 
Oh, my love goodbye

 C Gm 
Bye bye love goodbye
 F Am 
See you on the other side
 C Gm 
Bye bye love goodbye
 F Am 
I'll see you on the other side

 C Am Em 
Just between the two of us
 F Am C 
Something 'tween the two of us
 C Am Em 
Is more than just the two of us
 F Am C 
Just between the two of us
 Am F C 
Oh, my love goodbye
 Am F C 
Oh, my love goodbye

 C Gm 
Bye bye love goodbye
 F Am 
See you on the other side
 C Gm 
Bye bye love goodbye
 F Am 
I'll s

All Those Years Tabs by Cheap Trick

 -----------------------------------------------------------------------------
                             All Those Years - Cheap Trick
-----------------------------------------------------------------------------
:Nick V.
BlindTerry333

From 2006's "Rockford".

Tuning:EADGBE

G Em C

Riff #1 (played in the intro and verses)

e|--------------------------------------------------------------------------|
B|--------------------------------------------------------------------------|
G|-2------------------------------------------------------------------------|
D|---4--0-2-4-2-0-2-0-------------------------------------------------------|
A|--------------------------------------------------------------------------|
E|--------------------------------------------------------------------------|


        G             Em
You know I feel the deep blue?
           C
You won't hear me cry, see me die
G                   Em
What am I going to do?
      C            
I can see your face every time

   G    D   C                      G
Anytime you fall, I'm here for you
             C             
Now, my heart cries

   Em         C
All those years
Em             C
It's a lonely, lonely night
A lonely, lonely, lonely night
   Em
All those years
         C
It's a lonely, lonely night
               Am                     G
A lonely, lonely, lonely, lonely night

         Em
I close my eyes
               C
I can see your face every time
               Em
How can I say to you
      C                                    
I'll do anything you want me to?
G        D   C                    G
Anytime you fall, I'm here for you
          C         
Yeah, my heart cries

Em            C
All those years
 Em               C
It's a lonely, lonely night
A lonely, lonely, lonely night
   Em
All those years
         C
It's a lonely, lonely night
               Am                     G
A lonely, lonely, lonely, lonely night

              Am
Right from the start
              C    D
I gave you my heart

G Em C G Em C

Solo
E|--------------------------------------------------------------------------|
B|-------10----10--12--12v--10--12--12-10-12-15v----------------------------|
G|-12b14----12--------------------------------------------------------------|
D|--------------------------------------------------------------------------|
A|--------------------------------------------------------------------------|
E|--------------------------------------------------------------------------|

Em           C
All those years
Em                    C
It's a lonely, lonely night
A lonely, lonely, lonely night
Em         C
All those years
         C
It's a lonely, lonely night
               Am                     G
A lonely, lonely, lonely, lonely night

Questions, comments, insults-BlindTerry333

Take Me Im Yours chords – Cheap Trick

 ----------------------------------------------------------------------
                   Take Me I'm Yours-Cheap Trick
----------------------------------------------------------------------

:Nick V.
BlindTerry333

Tuning:EADGBE

From the 1980 EP "Found All The Parts" and also included on the "All Shook Up" remaster.

Intro:
 G Cadd9 G Cadd9 G Cadd9 G G 
You walked in the room
        Em D Dsus4 D 
First I saw your face, then I saw you smile
                          G 
A pretty girl like yourself
              Em 
You've got a new approach
         D Dsus4 D 
And the time is right
                      G Em 
You think, you're so fine, oh, so fine
                   D 
And it so excites me
                 G 
Come six with my nine
              Em 
You're my perfect partner
           D Dsus4 
The time's gettin' right

             G Cadd9 G 
Take me I'm yours
              D            
Take me I'm yours
    C Am G Cadd9 G 
Come on now and take me
          G 
Take me amour
              D Dsus4 D 
Take me I'm yours
    C Am G Cadd9 G 
Come on now and take me

                    G Em 
Oh, don't you be so nice to me
                    D Dsus4 
Oh, you can't be serious
                    G 
A pretty girl like yourself
                       Em 
You'll be my perfect partner
                     D Dsus4  
The time's gettin' right

            G Cadd9 G 
Take me I'm yours
              D            
Take me I'm yours
    C Am G Cadd9 G 
Come on now and take me
          G 
Take me amour
              D Dsus4 D 
Take me I'm yours
    C Am G Cadd9 G G /F#
Come on now and take me


   Em D C     
I love the way you wear your hair
   Am C 
I saw the way you stopped and stared
 D Am Em B7 
When I looked at you, oh no, oh no
  Em D C 
Well, maybe girls like you aren't free
     Am C 
But baby, baby, can't you see?
 Am D 
I just wanna be with you
                        G 
You walked through the room
  Em D Dsus4 D 
Continental style and sweet perfume
                  G 
A pretty girl like yourself
              Em 
You've got a new approach
                          D Dsus4 D 
And the time's gettin' right

  G Cadd9 G 
Take me I'm yours
              D           
Take me I'm yours
    C Am G Cadd9 G 
Come on now and take me
          G 
Take me amour
              D Dsus4 D 
Take me I'm yours
    C Am G Cadd9 G 
Come on now and take me

Questions, comme

Scent Of A Woman chords – Cheap Trick

 -----------------------------------------------------------------------------
                             Scent of a Woman-Cheap Trick
-----------------------------------------------------------------------------
:Nick V.
BlindTerry333

Tuning:EADGBE

The lead single from 2003's "Special One"

 E A E A Asus4 
Now woman...scent of a woman
    E A Asus4 A 
A man don't add up to much, next to a woman
 E A Asus4 
A man can't ever forget the taste of a woman
 E A E A 
A man is half the test, a man is half the best
 E A B 
A man can't understand the reasons why
 E A Asus4 
A man's just a day in the life of a woman
 E A Asus4 
Just a few mintues a night to a woman
 E A 
See what a woman can do
 E A 
To the man inside of you
 E A B 
It's more than the sum of the sun and the moon
        E A 
Well a man is a man is a hell of a man
   C#m A 
A man ain't a man in a one night stand
 E A 
A man just don't stack up next to a woman
 E A 
A man can't see what a woman can do
   A E 
A man is no man hiding next to you
   C#m A 
A man don't add up to much next to a woman
                         E A E A  
Oohhh...the scent of a woman
      E A Asus4 
The world would never be, except for a woman
      E A Asus4 
It's hard for a man to see what makes a woman
      E A C#m A 
Even harder to impress, cause she expects the best
                    C#m B 
She never makes it easy to pass the test
       E                        
Well a man is a man is a hell of a man
 A              
A man ain't a man in a one night stand
 C#m A 
A man just won't stack up next to a woman
   E A 
A man can't do what a woman can do
  E A 
A man is not a man lying next to you
     C#m A 
And man will just give up next to a woman
     B 
Oh yeah....
      B 
Here she comes now (here she comes now, she comes now, here she comes now)
Here she comes now (here she comes now, she comes now, here she comes now)
       E                             
Well a man is a man is a hell of a man
    A A 
A man ain't a man in a one night stand
    C#m A 
A man just won't stack up next to a woman
   E A 
A man can't do what a woman can do
    C#m A 
A man is a man if he can get to you
 C#m A 
All a man wants to do is get to a woman, yeah

 E A C#m 
Yeah yeah...yeah yeah...yeah yea...yeah yeah...yeah yeah...yeah yeah
 A E A C#m 
Yeah yeah...yeah yeah...yeah yeah...yeah yeah...yeah yeah....yeah yeah
 A E A E A E A E A E 
Ohhh...the scent of a woman

Questions, comments, insults...BlindTerry333

It All Comes Back To You Tabs by Cheap Trick

 ----------------------------------------------------------------------------
                             It All Comes Back To You-Cheap Trick
----------------------------------------------------------------------------
:Nick V.
BlindTerry333

Tuning:EADGBE

From CT's 1997 self titled and also the beautiful version on "Silver". Everything 
but the choruses is played finger style but strumming the chords would sound okay.

Intro/First part of each verse

"Riff 1"
         D   /sus4 D /sus2 A  D    /sus4 D Asus4 A
e|-------2--2--3--2--0--0--0--2--2--3--2--0--0-----------------------------|
B|-3--5--3--3--3--3--3--2--2--3--3--3--3--3--2-----------------------------|
G|-------2--2--2--2--2--2--2--2--2--2--2--2--2-----------------------------|
D|-------0--0--0--0--0--2--2--0--0--0--0--2--2-----------------------------|
A|-------x--x--x--x--x--0--0--x--x--x--x--0--0-----------------------------|
E|-------x--x--x--x--x--x--x--x--x--x--x--x--x-----------------------------|

End of the verses

"Riff 2"

   G  Asus4 A G Asus4 A
e|--3--0--0--3--0--0-------------------------------------------------------|
B|--3--3--2--3--3--2-------------------------------------------------------|
G|--0--2--2--0--2--2-------------------------------------------------------|
D|--0--2--2--0--2--2-------------------------------------------------------|
A|--2--0--0--2--0--0-------------------------------------------------------|
E|--3--x--x--3--x--x-------------------------------------------------------|

Chorus

Bm (x24432) A

Bm Asus4 A

"Solo"

e|-2-2-2-3-3-5------------------------------------------------------------|
B|-0-0-0-0-0-0--2-2-2-3-3-5-----------------------------------------------|
G|--------------0-0-0-0-0-0-----------------------------------------------|
D|------------------------------------------------------------------------|
A|------------------------------------------------------------------------|
E|------------------------------------------------------------------------|


"Riff 1"
When all your friends have gone
How long will time go on

"Riff 2"
It all comes back to you
It all comes back to you

"Riff 1"
When I look up to the sky
Say a prayer for you tonight

"Riff 2"
It all comes back to you
Well with everything you do
G                             Asus4 A
Oh, yeah it all comes back to you

Bm                                A
I, if I could fly, I'd fly away tonight
Bm                             Asus4  A
So why, why fly, should I try tonight

"Riff 1"
The best I've ever had
It all went by so fast

"Riff 2"
So, it all comes down to you
With all the things you do

"Riff 1"
When the world is gone and done
Spent your life on the run

"Riff 2"
Yeah, it all comes back to you
With everything we do
G                         Asus4 A
Yeah, it all comes back to you

Bm                               A
I, if I could fly, I'd fly away tonight
Bm                              Asus4 A
So why, why, why, should I try tonight

Solo

"Riff 1"
I know what's done is done
Of all my loves, you're the one

"Riff2"
So, it all comes back to you
Yeah, with everything you do
G                    Asus4 A
It all comes back to you 

Questions, comments, insults...BlindTerry333.

Take Me To The Top chords – Cheap Trick

 ----------------------------------------------------------------------------
                             Take Me To The Top-Cheap Trick
----------------------------------------------------------------------------
:Nick V.
BlindTerry333

Tuning:EADGBE

Originally from their much loved album "The Doctor"....but this is based off the 
acoustic/live version from "Silver", where the keyboard parts are played on guitar.

 E :022100
 A *:007760
 B *:009980
 A :x02220
 B :x2444x
 C#m :x46654

Intro

    E A *  E B *  E A *  E B *  E 
e|-0--0--0--0--0--0--0--0--0------------------------------------------------|
B|-0--0--0--0--0--0--0--0--0------------------------------------------------|
G|-1--6--1--8--1--6--1--8--1------------------------------------------------|
D|-2--7--2--9--2--7--2--9--2------------------------------------------------|
A|-2--7--2--9--2--7--2--9--2------------------------------------------------|
E|-0--0--0--0--0--0--0--0--0------------------------------------------------|

        E A 
We go back a long, long way
           E A 
Yet, it seems like yesterday
When the words are spoken
       B 
Or whispered in your ear E A* E B* 
               E A 
Things have changed since we first met
         E A 
You alone are more than I expect
But the good outweighs the bad
      B 
By 110 percent
                    E 
You take me to the top
                       A E 
You're everything I've got
                        A 
You catch me if I'm falling
 B 
Oh, all the way
 E 
You take me to the top
                         A B 
You catch me if I'm falling, oh
 E A 
Some things go in circles
 E A E 
Something's in the air
      A B 
You know just what I'm feeling
    A                     
You can make the difference
     B 
You know I really care
                    E 
You take me to the top
                          A E 
You're everything I've got
                 A B E 
You catch me if I'm falling, oh, all the way
                    E 
You take me to the top
                      A 
You catch me if I'm falling
             E 
Oh ah ah oh
 E 
If I could dream a dream
               A 
With a happy end
 B 
You'd be in it every night
 A 
Again and again
         B 
Right here by my side
        C#m 
You'd never go away
 B 
But when I'm awake
I sing I say
                    E 
You take me to the top
                      A E 
You're everything I've got
      A B 
You catch me if I'm falling
               E 
Oh, all the way
                  A E 
You take me to the top
      A B E 
You catch me if I'm falling oh

 E A *  E B * A *  B *  E 

Questions, comments, insults...BlindTerry333

Special One Tabs by Cheap Trick

 -----------------------------------------------------------------------------
                             Special One-Cheap Trick
----------------------------------------------------------------------------
:Nick V.
BlindTerry333

Tuning:EADGBE

From the 2003 album of the same name.  CT also recorded the song in Japanese.

Intro:

The beginning of the song has a "drone" type sound that can be done on guitar. As you
play the E chord mute and pull off at the bridge using the ball your hand. That's the
easiest description I can think of.  Bruce Springsteen does it a lot with his acoustic 
songs if you want more examples.

E

e|-----------9---------------9----------------------------------------------|
B|-10--10/12----12---10/12-------12--7/9------------------------------------|
G|--------------------------------------------------------------------------|
D|--------------------------------------------------------------------------|
A|--------------------------------------------------------------------------|
E|--------------------------------------------------------------------------|


            E                      A
Two thousand years gone by and going strong
           E                        B
Well never fear my love it won't be long
           E                        A
You say you've had enough, it seems so wrong
          Am                 E
Now it's suicide, oh my love

e|-----------9---------------9----------------------------------------------|
B|-10--10/12----12---10/12-------12--7/9------------------------------------|
G|--------------------------------------------------------------------------|
D|--------------------------------------------------------------------------|
A|--------------------------------------------------------------------------|
E|--------------------------------------------------------------------------|



And now you know just why I'm here
Now my eyes they see so clear, no fear

E                                     A
Where do we go from here, it's in your head
E                                  B
So many tears we'll cry before we're dead
E                              A
Remember me my love and what we said
            Am                   E
I will stand by you all night long



And now you know just why I'm here
e|-----------9---------------9----------------------------------------------|
B|-10--10/12----12---10/12-------12--7/9------------------------------------|
G|--------------------------------------------------------------------------|
D|--------------------------------------------------------------------------|
A|--------------------------------------------------------------------------|
E|--------------------------------------------------------------------------|

And now my eyes can see so clear
Oh, baby

E
Just like the dreams you grow old and die
C#m                            
No one pretends to know just why
B                              A
I feel the calm before the storm
E
I'm here

      (riff)             E
e|--------------------------------------------------------------------------|
B|--------------------------------------------------------------------------|
G|--------------------------------------------------------------------------|
D|--------------------------------------------------------------------------|
A|-0-2-3-3--2---------------------------------------------------------------|
E|-------------3------------------------------------------------------------|

E                        G#
Kiss me again before you go
A                                    G#
There's something else that you should know
                   A                F#
My life will be hell without you my belle
A                     E
Oh, my love, my love

e|-----------9---------------9----------------------------------------------|
B|-10--10/12----12---10/12-------12--

Best Friend chords – Cheap Trick

 -------------------------------------------------------------------------------
                             Best Friend-Cheap Trick
-------------------------------------------------------------------------------
:Nick V.
BlindTerry333

Tuning:EADGBE

From "Special One".  Very heavy and some of Robin's best screaming.

An easysong but they key to it is starting soft and gradually building in volume and 
intensity with each line.

 Intro:

e|-------------------------------------------------------------------------|
B|- <12>--------------------------------------------------------------------|
G|------<12>---------------------------------------------------------------|
D|---------------------------------------------------------------=====-----|
A|------------<7>----------------------------------------------------------|
E|-------------------------------------------------------------------------|

EmCA
When the moon came up
EmCA
And the sun went down
EmCA
All I could see was a national frown
EmCA
It was pounded flesh and harder than steel
EmCA
Pretty in pink that's just how I feel
EmCA
Leave me alone cause I'm my best friend
EmCA
If you wanna be with me I'll be there til the end
EmCA
Til the end of time and time again
EmCA
Just leave me alone cause I'm my best friend yeah yeah
EmCA
Cause I'm my best friend now
EmCA
'Cause I'm my best friend
EmCA
All I got is might and will
EmCA
If all I got is might and will
EmCA
Can't slow down cause down we'll go
EmCA
Where I stop you don't wanna know
EmCA
Round and round and round we'll go
EmCA
Where I stop is where I wanna go
EmCA
Go go go go go go
EmCA
Where I wanna be is where I wanna go
EmCA
Lofty thoughts and high ideals
EmCA
Lofty skirts is what
EmCA
Lofty skirts is what appeals
EmCA
This baby is no Baby Ruth
EmCA
He was too smart for her
EmCA
She was so damn cute
EmCA
I'm sick and tired can't be late
EmCA
I'm so damn mad I can't keep straight
EmCA
Time and time and time again
EmCA
Leave me alone cause I'm my best friend yeah
EmCA
Leave me alone cause I'm my best friend yeah

EmCA
I'm my best friend yeah
I'm my best friend yeah
I'm my best friend yeah


Questions, comments,insults-BlindTerry333</7></12></12>

Carnival Game chords – Cheap Trick

 ----------------------------------------------------------------------------
                           Carnival Game - Cheap Trick
----------------------------------------------------------------------------
                             
:Nick V.
BlindTerry333
Tuning:EADGBE

Awesome/simple song from CT's 1997 S/T album.

 A F#m D Dm 
It was a masquerade at Mardi Gras
 A G F#m Dm     
That was the only trip that I recall
 A F#m D Dm 
Every time I turned around at all
 A F#m D Dm 
There was you

 Bm F#m 
Some days are easier said than done
 Bm F#m 
Always expecting something's wrong
 Bm F#m E 
I'd rather live alone than drag this on 

 D E A F#m A         
Take your time, please lay your hands on me

(Notes:  G F# F E )

Don't wanna be alone, oh no
 D E A F#m A 
A mask behind the face and then you're gone (Notes:G F# F E)
                     D Dm 
Oh yeah, comes a time when you're better off alone 
 A F#m D Dm A G F#m Dm    
You're on your own

 A F#m D Dm  
I've got a kaleidoscope of memories
 A F#m D           
Visions of you locked up inside of me
 Dm 
Can't you see?

 Bm F#m 
We once collided like a broken wheel
 Bm F#m 
So undecided what was real
 Bm F#m 
Maybe a crash somehow has sex appeal
 E                      (Notes:  C C# D )
Whatever turns you on

 D E A F#m A  
Take your time, please lay your hands on me

(Notes: G F# F E )
Don't wanna be alone, oh no       
 D E A F#m A 
A mask behind the face and then you're gone (Notes:G F# F E)
                     D Dm 
Oh yeah, comes a time when you're better off alone 
 A F#m D Dm A G F#m Dm    
You're on your own

 A F#m D Dm 
One down, one to go
 A F#m D Dm 
Oh no, playin' in a carnival your time is gone
 A F#m D Dm 
One down, one to go
 A F#m D Dm 
Oh no, playin' in a carnival, you're all alone
 A F#m D Dm 
One down, one to go
 D Dm A 
Oh no, you're on your own

Questions, comments, insults...BlindTerry333



Read more: Cheap Trick - Carnival Game Lyrics | MetroLyrics 

I Dont Love Here Anymore chords – Cheap Trick

 Intro:  E7 A7 F#7 
We had a special way of talkin', oh, a language all our own
 A7 B#7 
We always knew the latest dances, but we liked old-fashioned love
 E7 
Now something seems the matter

 E A B C#m G#m 
You don't want to play by the rules (you...), I don't want to love here anymore (...)
  A B E7 
You don't want to play by the rules (...)

 A7 F#7 
I don't have a lot of patience, when someone's lit my fuse
 B7 E7 
So don't you try to reason, me, I don't want no excuse, no!

 E A B C#m G#m 
You don't want to play by the rules (you...), I don't want to love here anymore (...)
  A B A G#m F# 
You don't want to play by the rules (...) oooh

 E G#m E G#m A 
You (...) don't (...) play (...) by the rules, I (...) won't (don't) love here anymore
 E A B C#m G#m 
You don't want to play by the rules (...) 'cause I don't want to love here anymore (...)

example E7 riff:
e-------------------------------------------|
b-------------------------------------------|
g-------------2-1---------------------------|
d---------0-------2-0----2------------------|
a-----0h2---2---------0h2-------------------|
E-0-0---------------------------------------|

Heavens Falling chords – Cheap Trick

 Intro: (  A - E/A - A A - E/A - B/A  ) x4   E   (see tab notes below)

 E 
I will believe, what I want to believe, nobody needs, to do my thinkin' for me
              A - E/A - A A    -  E/A    -  B A - E/A  -    A A  -   E/A   -    B 
I know the score,  I'm always out of line, it's as if I was born in the wrong place in time
      A    -  E/A   -  A A     -  E/A -  B  
And nobody understands just what's in my mind
             D E 
But when I face the light, somehow it all seems right

              A B     / B -/ A -/ G# - F#m B 
You know it feels like heaven's falling,        down on me
            A B     / B -/ A -/ G# - F#m B 
And I can hear the angels calling,        calling me

   E 
Speak your mind, you know you've got the right, you're not afraid, you're goin' with me tonight
             A - E/A - A A    -  E/A  -  B A   -  E/A  -    A A      -     E/A   -    B 
Everybody stops, they whisper and stare, cause we're not afraid to do,the things they wouldn't dare
      A      -    E/A   -  A A    -  E/A  -  B  
But they would never know, the little secrets we share
                 D E 
And when you squeeze my hand, I know you understand

                  A B     / B -/ A -/ G# - F#m B 
And you know it feels like heaven's falling,        down on me
            A B     / B -/ A -/ G# - F#m B 
And I can hear the angels calling,        calling me

 C#m D 
This kinda world ain't for lovers and fools, sceamers and dreamers, who don't follow their rules
 C#m D A 
We gotta run, our legs are still young, we gotta run until our heaven comes

Solo: (  A - E/A - A A - E/A - B/A  ) x6

              D E A 
And when we face the light, somehow it all seems right

                    A B     / B -/ A -/ G# - F#m B 
Don't you know it feels like heaven's falling,        down on me
            A B      / B -/ A -/ G# - F#m B 
And I can hear the angels calling,         calling me
                    A B     / B -/ A -/ G# - F#m B 
Don't You know it feels like heaven's falling,        down on me
            A B      / B -/ A -/ G# - F#m B 
And I can hear the angels calling,         calling me
                    A B     / B -/ A -/ G# - F#m B 
Heaven's falling, down on me, angels calling,        calling me 
               A B     / B -

Ill Be With You Tonight chords – Cheap Trick

 NC   D E A A#dim D E A A#dim 
Tonight, tonight, I'll be with you tonight, tonight, tonight, I'll be with you tonight
     D E A -riff x2
Tonight, tonight

 A A A 
You got me burnin', burnin' with desire, you got me burnin', burnin' like a fire, oh yeah
 A A 
You got me thinkin', thinkin' what I'll do, no doubt about it, I want it with you
 A 
Though you're not my first love, you just might be my last
 A A 
My heart is poundin' like a drum, drum, drum, drum, drum, drum, drum, yeah

    A E 
Tonight will be the first night that I've been in love with you
     Bm F#m 
You get me so excited, I'm not sure what I'm gonna do
    A E 
Tomorrow you won't be here and I don't expect you to
    Bm F#m 
Tonight is all I really want, I really want from you

     D E A A#dim D E A A#dim 
Tonight, tonight, I'll be with you tonight, tonight, tonight, I'll be with you tonight
     D E A -riff x2
Tonight, tonight

 A A A 
Everything about you is more than everything, you make me crazy, I'm doin' crazy things, 
oh yeah
 A A 
Tonight when I first saw you, I knew it had to be, why'd you have to be so right for me?
 A 
Though you're not my first love, you just might be my last
 A A 
My heart is poundin' like a drum, drum, drum, drum, drum, drum, drum, yeah

    A E 
Tonight will be the first night that I've been in love with you
     Bm F#m 
You get me so excited, I'm not sure what I'm gonna do
    A E 
Tomorrow you won't be here and I don't expect you to
     Bm F#m D F#m 
Tonight is all I really want, I really want from you, from you, from you

         D E A A#dim D E A 
Ooh tonight, tonight, I'll be with you tonight, tonight, tonight, I'll be with you,
 Bb/A B/A C/A D E A -riff
I'll be with you, I'll be with you, I'll be with you tonight, tonight

(use same riff w/different bass):  A A/G A/F# A/G

 A A/G A/F# A/G 
I'll be with you, I'll be with you, I'll be with you, I'll be with you
 A A/G 
I'll be with you, I'll be with you, I'll be with you, I'll be with you
 A/F# A/G 
I'll be with you, I'll be with you, I'll be with you, I'll be with you


A-riff:  (similar patterns for major chords in chorus-you can figure them out!)
e------------------------------|
b------------------------------|
g-----2------------------------|
d----------5----4----2---------|
a-0-0---0-0--0-0--0-0---0-3-4--|
E------------------------------|

Downed chords – Cheap Trick

 Transpose -5 steps with buttons on the left for original key, (or leave like this to 
sing with baritones!). Ask if you want chord fingering help.

Intro:  G F Eb F G F C/E Eb G F/G Eb/G F/G G F/G    C/ G Eb/G G - F - C D - C - G 
Downed, downed out of my head, 'round, 'round out of my head

 G     -      F      -     C D      -     C       -      G G      -        F     -   C 
I'm gonna live on a mountain, way down under in Australia, it's either that or suicide,
 D       -       C     -    G D - C      -      G 
It's such a strange strain on you, ooh, I got a mind
   D  -  C         -        G D - C G 
Over you it's not the first time, ooh, I got a mind

 G      -       F      -      C D         -       C        -        G 
Rainbow's crawling on a midday sun, but I've been lucky you're the only one
 G    -      F           -        C D        -        C   -     G 
Sunday's calling, you'll be number one, it's such a strange strain on you
 D - C          -       G D       -     C        -        G 
Ooh, you think of Jesus Christ, you walk on water but don't bet your life, oh no
  D   -     C     -     G D        -        C      -      A F A F   (riff1 x3 run)   G F/G Eb/G G 
All you walk is a fine line, it's such a strange strain on youuu

  G F/G Eb/G F/G G F/G    C/ G Eb/G 
Downed, downed out of my head, 'round, 'round out of my head

  G     -    F         -      C D     -     C        -        G 
Too many people want to save the world, another problem is it a boy or girl?
  G      -        F       -      C D        -        C    -    G 
Some say the weekend is the only world, it's such a strange strain on you
 D - C        -       G D  -  C         -        G 
Ooh, I've got a mind, over you it's not the first time
  D   -     C     -     G D        -        C      -      A F A F 
All you walk is a fine line, it's such a strange strain on you

  G F/G Eb/G F/G G F/G    C/ G Eb/G 
Downed, downed out of my head, 'round, 'round out of my head
  G F Eb F G F C/E Eb 
Downed, downed out of my head, 'round, 'round out of my head
  G F Eb F G F C/E Eb 
Downed, downed out of my head, 'round, 'round out of my head
  G F Eb F G 

I Cant Take It chords – Cheap Trick V2

 Intro: ( A/D  F#m ) x2  E  (see tab notes below)

         A 
Well I saw you today and realized, how I missed my peace of mind
    D E D A 
I feel your breath in my ear, but late at night it's you I always think about
                                                 D 
That little girl inside of you I once knew, I should have, known better
  E D E/D F#dim Adim A F#m 
Still the smell of you was on my face,  but you were too busy to notice me last night

     D E D         -        E 
Now I can’t take it alone,  I can’t make it alone, I can’t take it, I can’t make it alone

 A/D F#m A/D F#m E 
   Oh no,  oo, oh no

         A D 
Then I tell myself I’ll put you down, don’t wanna see your face around,don’t call me up anymore
   E D E/D F#dim Adim A F#m 
When I hear your voice it’s in my ear, you’re kissin’ on the phone, it makes it all come clear

     D E D         -        E 
Now I can’t take it alone,  I can’t make it alone, I can’t take it, I can’t make it alone

 A/D F#m A/D F#m A/D 
   Oh no,  oh, oh no, I try to tell myself, don’t need you anymore,
  F#m A/D F#m 
Don't want you hangin, around my door, oh no

(  D - A/C# - Bm - A -/G#- F#m - E  ) x2

     D E D E 
Now I can’t take it alone,  I can’t make it alone, I can’t take it alone,  I can’t make 
it alone
 D         -         E A F#m 
I can’t take it,  I can’t make it alone, if it’s wrong or right
 D         -         E A F#m 
I can’t take it,  I can’t make it alone, you know how I tried
 D         -         E A F#m 
I can’t take it,  I can’t make it alone, I try tell myself, don’t need you anymore
 D         -         E A F#m 
I can’t take it,  I can’t make it alone, oh baby, my pretty baby
 D         -         E A 
I can’t take it,  I can’t make it alone

Intro:
   A/D F#sus2 F#m 
e--------9----------------|
b--9-10--10---9------10---|
g--9--9--9----11-----11---|
d--0--0--0----11-----11---|
a-------------9------9----|
E-------------------------|

Note - Todd Rundgren produced this song and it definitely has his signature sound on the guitar...