Tag: chloe

Chloe intro Tabs – Little Brother Vsion 2

 -------------------------------------------------------------------------------
CHLOE - Little Brother
-------------------------------------------------------------------------------
: Thomas Harrison
tomjar8.au
Tuning: E standard
Capo: 2nd fret
e|-------------5--2-2h3p2-0----------|
B|---3p0-3s5----------------0--------|
G|-----------------------------------|
D|-----------5-----------------------|
A|-3---------------------------------|
E|-----------------------------------|
e|---------------5---2-2h3p2-0-------|
B|-----3p0-3s5----------------0------|
G|-----------------------------------|
D|--0h2--------5---------------------|
A|-3---------------------------------|
E|-----------------------------------|
Just my take on the intro, John's version probably isn't exactly like this.
************************************
| /   slide up
| \   slide down
| h   hammer-on
| p   pull-off
| ~   vibrato
| +   harmonic
| x   Mute note
| b   Bend
| pb  Pre-bend
| br  Bend release
| pbr Pre-bend release
| brb Bend release bend
************************************

Life Is Strange – End Credits Max And Chloe Tabs – Misc Computer Games

 -------------------------------------------------------------------------------
Jonathan Morali - End Credits (Life Is Strange)
-------------------------------------------------------------------------------
: Marta Mayer
After releasing my set of covers on YouTube (https://www.youtube.com/watch?v=waY8jaL-3Es), many 
people asked for tutorials or tabs for particular songs. So here you are, here is the wonderful 
music that can be heard in the end of the game! This tab is obviously not for the melodic line, 
but for the accompanying guitar (in my vid it's the upper screen). I warn you, it's not 
the easiest song. I tried to tab it in the simpliest way possible, but please - do read 
carefully, before giving up :)
Tip: The best fingers positions for the first two chords are like this:
pinkie finger: A string, 5th fret 
ring finger: D string, 4th fret
index finger: G string, 2nd fret
middle finger: B string, 3rd fret
Tuning: Standard
Position 1 (0:00 - 0:20)
e|------------------------------------------------------------------------------------------------------|
B|----------------3----------------------3-------------------------3-------------------------3----------|
G|-------------------2------2-----2----------2-----------2-----2-------2------------2-----2-------2-----|
D|------4------4---------------------4-----------4--------------------------4-------------------------4-|
A|--5------5------------5-------5--------------------5------5--------------------5------5---------------|
E|------------------------------------------------------------------------------------------------------|
Now, here comes the first change.
Position 2 (0:20 - 0:24)
Tip: The position is very similar to the first one. All you have to do, is to move your index finger to 
the E string, 3rd fret.
e|----------------------------------------------------------------------------|
B|---------------3-----------------------3------------------------------------|
G|-----0-------------0----------0--------------0------------------------------|
D|-----------4-----------4------------4---------------4-----------------------|
A|----------------------------------------------------------------------------|
E|--3-----3------------------3----3-------------------------------------------|
And then go back to position 1. 
Here comes the 3rd position (basically the Em chord)(in the song it's on 1:01)
e|------------------0---------------------------------------------------------|
B|----------------------0-----------------------------------------------------|
G|----------0---------------0-------------------------------------------------|
D|------2-------2---------------2---------------------------------------------|
A|----------------------------------------------------------------------------|
E|---0------------------------------------------------------------------------|
And right after is the 4th position (it's Bm barre chord) (1:03 approximately)
e|------------------------2---------------------------------------------------|
B|-----------------------------2----------------------------------------------|
G|---------3------------------------3-----------------------------------------|
D|-------------------4-------------------4------------------------------------|
A|----------------------------------------------------------------------------|
E|----2---------2-------------------------------------------------------------|
AND THEN SWITCH TO POSITION 1 AGAIN.
Now, I don't play this part in my video since I cut it out accidentally, but in case you want to continue 
with the song (and obviously you do), the chords are basically the same, until 2:13.
5th position (G chord, but the barre version) (it comes roughly on 2:14)
e|---------------------------------------------------------------------------------|
B|-----------------------3-------------------------------------------3-------------|
G|----------------------------4--------------

Upside Down chords – Chloe Collins

 UPSIDE DOWN
D AM EM G  2x
D Am Em G 
I just got this feeling, I just never knew that I could get
D Am Em G 
Standing in the hallway, saw him coming my way, then our eyes met
Em G 
I tell myself it’s just another boy I know
Em A 
It’s just another feeling that will come and go but
D G EM A 
Chorus: My heart just skipped a beat and now I’m dancing down the street
D G EM A 
My feet they hardly touch the ground, my head is spinning round and round 
EM A G D 
Today’s the day my world turned UPSIDE DOWN – UPSIDE DOWN
D AM Em G D Am Em G 
Now I’ve got this feeling, I can’t wait to see him, see him again
D Am Em G 
I’ve still got this feeling, it’s the feeling I got when we just met
Em G 
I tell myself it’s just another boy I know
Em A 
It’s just another feeling that will come and go but
D G EM A 
Chorus: My heart just skipped a beat and now I’m dancing down the street
D G EM A 
My feet they hardly touch the ground, my head is spinning round and round 
EM A G D 
Today’s the day my world turned UPSIDE DOWN – UPSIDE DOWN
G 
Upside Down
D 
Upside Down
G 
Upside Down
D 
Upside Down

Will You Cry For Me chords – Arina Chloe

 Intro:  Am F Dm E 
[Arina] 
Am 
It's hard to face what we've become,
F 
Broken dreams and empty songs.
Dm 
We wanna live but can't go on, 
E 
We want a reason but it's gone.
Am 
I thought I knew just who I was,
F 
The sickness seeps through all of us.
Dm 
We want a chance but it's all gone,
E 
We want some answers to be strong.
Am 
Now you're running out of time,
F 
And it hurts so bad inside,
Dm 
And it's eating you alive,
E 
And now there's no one by your side.
Am 
You can't hide behind your lies no more,
F 
The future's in our hands not yours.
Dm 
We'll rise against to find the cure,
E 
The answer's in the world.
[Deuce]
Am F 
Will you cry for me, will you die for me?
Dm E 
'Cause heaven's far and when I go there they don't answer me.
Am F 
And I will die for you, and I will cry for you,
Dm E 
'Cause this is hell and Happiness seems like it's far, it's true.
[Arina]
Am 
I know the question's on your mind, 
F 
I see you struggling all the time.
Dm 
You know it's me that's on your mind,
E 
Your eyes are closed, you're losing sight.
Am 
I know the future's not so bright,
F 
I see we'll have to bear this fight.
Dm 
Destruction's always on your mind,
E 
But I am strong I will survive.
Am 
Now we're running out of time,
F 
And it hurts so bad inside,
Dm 
And we'll push until the sun will rise,
E 
There's no more alibis.
Am 
There's truth beneath these pale blue skies,
F 
Our army's strong and yours is lies.
Dm 
You're fallin' back you're weak inside,
E 
So now I'll say goodbye.
[Deuce]
Am F 
Will you cry for me, will you die for me?
Dm E 
'Cause heaven's far and when I go there they don't answer me.
Am F 
And I will die for you, and I will cry for you,
Dm E 
'Cause this is hell and Happiness seems like it's far, it's true.
[Arina]
Am F 
And as I'm looking away,
Dm 
I know there's better days,
E Am 
Places where we all can be free.
F 
As I'm looking away,
Dm 
I need to find a way,
E 
Find a way.
Am 
So before I go and leave this place,
F 
Before my last breath fades away,
Dm 
I won't go until I know
E 
We'll have a tomorrow.
Am 
Before we go and leave this place, 
F 
Remember what I said today,
Dm 
Never let us fade away, 
E 
Don't kill our tomorrow.
[Deuce]
Am F 
Will you cry for me, will you die for me?
Dm E 
'Cause heaven's far and when I go there they don't a