Tag: colour

Start Of The Day chords – Ocean Colour Scene V2

 12.Start of the day - Ocean Colour Scene - An hyperactive workout for the flying squad
----------------------------------------
A7sus4   x00030
D/F#     254232
A5       577655
Intro:  G A7sus4  x2
D A7sus4 D A7sus4 
I wanna know how it feels to be alone as it appears to me
D A7sus4 
As the start of the day is the end of the night
D A7sus4 
so the end of the night is the start of the day
D A7sus4 D A7sus4 
I know that's true cause everybody knew before me so where do I go now
D G A5                   
It's the start of the day, it's the end of the night, the end of the night, 
G                
it's the start of the day
D G A5 
And once it is gone it will never come back again
D G A D G A5 
Well we know where we are and we know that we've come so far
D G A 
And we'll never go back again
D A7sus4 D A7sus4 
Now I know it's true, cause everybody knew before me, so where do I go now?
D A7sus4 
So take me back to the start where I was falling apart
D A7sus4 D 
They're all the things you want to be you never want to be with me
D G A5                   
It's the start of the day, it's the end of the night, the end of the night, 
G                
it's the start of the day
D G A5 
And once it is gone it will never come back again
D G A D G A 
Well we know where we are and we know that we've come so far
D G A 
And we'll never go back again
D G D G 
You said you knew everything, you said you knew everything,
D G D G 
About love and peace and hate and lies, about love and peace and hate and lies
D G A5                   
It's the start of the day, it's the end of the night, the end of the night, 
G                
it's the start of the day
D G A5 
And once it is gone it will never come back again
D G A D G A 
Well we know where we are and we know that we've come so far
D G A 
And we'll never go back again
D G A5                   
It's the start of the day, it's the end of the night, the end of the night, 
G                
it's the start of the day
D G A5 
And once it is gone it will never come back again
D G A 
And once it is gone it will never come back again
----------------------
Raúl Galván Ábalos

I Just Need Myself chords – Ocean Colour Scene

 1.I just need myself - Ocean Colour Scene - North Atlantic Drift
-----------------------------------------
Gdim7    320320
E7       020100
Intro: 
E7 C/D Gdim7 E7 C/D G E7 C/D Gdim7 E7 C/D G 
Verse 1:
E7 C/D A7 G 
I'll die before I get to sleep
E7 C/D A7 G 
When screaming shadows haunt my dreams
E7 C/D A7 G   
I'm cold and soaking wet when daylight shows its face
E7 C/D A G D A C/D A E 
This fear will always get in your way
Chorus
E A 
And I can hear so much That I miss it everyday
E A 
It finds me deep in love and deeper down the lane
E A 
I don't know too much but I know what I want to say
D B 
I Just Need Myself
E7 C/D Gdim7 E7 C/D G 
Verse 2:
E7 C/D A7 G 
Please leave me when you see me fall
E7 C/D A7 G 
Oh please I have to climb that wall
E7 C/D A7 G   
And from the top of it you can nearly see your face
E7 C/D A G D A C/D A E  
But don't let this ever get in your way
Chorus
E A 
And I can hear so much That I miss it everyday
E A 
It finds me deep in love and deeper down the lane
E A 
I don't know too much but I know what I want to say
D B 
I Just Need Myself
Solo 
E7 C/D Gdim7 E7 C/D G E7 C/D Gdim7 E7 C/D G 
Verse 3:
E7 C/D A7 G 
I'm not going to walk on sinking sand
E7 C/D A7 G 
I'll sail this day to higher land
E7 C/D A7 G   
And when the sun is high, and I'll let my music say
E7 C/D A G D A C/D A E  
These things will never get in your way
Chorus
E A 
And I can hear so much That I miss it everyday
E A 
It finds me deep in love and deeper down the lane
E A 
I don't know too much but I know what I want to say
D B 
I Just Need Myself
Solo 
Solo 
E7 C/D Gdim7 E7 C/D G E7 C/D Gdim7 E7 C/D G D A E D A E D A E D A E 
--------------------
Raúl Galván Ábalos

At The Birds Foot chords – City And Colour V3

 Capo 1
Em : 032000
C/G : 332010
D/A : 554030
Em 
There is a fire burning in the ocean,
C/G D/A Em 
With death black smoke and devil red flames,
Em 
You can see it burning from the valley,
C/G D/A 
Oh you can see it from the high plains,
Em C/G D/A 
Oooh x 3
Em 
While they were drillin',
Searchin for black gold,
C/G D/A 
To add more dollars,
Em 
To their names,
Em 
Then one evening,
So suddenly and violent,
C/G D/A 
There was an explosion,
Em 
They cant explain,
Em C/G D/A 
Oooh x 3
Now the deep water horizon
Desends down to deaths door
And at the bird's foot,
They lost all hope,
Cause oil is driftin,
For miles and miles,
Poisoning the Gulf of Mexico,
But of the eleven,
Men at the bottom,
Who sank to an underwater grave?
And while they were sinking,
And their lungs filled with oil,
They must have been screaming,
Screaming to be saved,
Oooh (repeats until end of song)
But of the eleven ,
Men at the bottom,
Who sank to an underwater grave?
While they were sinking,
Their lungs filling with oil,
They must have been screaming,
Screaming to be saved.

How Come Your Arms Are Not Tabs by City And Colour V2

 Tuning: C Standard- 2 Full Steps Down
Dallas Green has done it once again with a very nice cover. The whole song is really 
just 3 chords.
Em - C - G. With simple hammer ons added on throughout. The strumming pattern does
increase as the song progresses, but its not hard to figure it out. Most of the song he plays
the G chord part twice, sometimes he plays it once and restarts the bar over, so watch 
out for that. Enjoy! Seemed pretty accurate!
(/) Slide Up  (\) Slide Down  (h) Hammer On  (p) Pull Off  (b) Bend (r) Release (v) Vibrato
C  |--0--0----0----0--0---------0----0----------0-----0----|
G  |--0--0h1--1h3--0--0h1p0-----0h1--1h3--------0h1---1h3--|
Eb |--0--0----0----0--0---------0----0----------0-----0----|
Bb |--2--2----2----2--2------0--0----0---- 0----0-----0----|
F  |--2--2----2----3--3------2--2----2--- -0h2--2-----2----|
C | --0--0----0--------------3--3----3-----3----3-----3----|
^
^
Occasionally do the same hammer on process as the Em chord before
0h1 -- 1h3

Sometimes Tabs by City And Colour V3

 Sitting at home one night and figured out the correct way for this tab, Ive seen the 
other tabs on here in the Standard Tuning and Capo 6. Which is pretty much the right way, 
but one difference. The A string is tuned a full step up to B.
Capo 6
(/) Slide Up  (\) Slide Down  (h) Hammer On  (p) Pull Off  (b) Bend (r) Release (v) Vibrato
INTRO
E|----------------0----------------------------0----|
B|----------------0----------------------------0----|
G|-----------2-4- 0----2/4\2p0-----------------0----|   Strum and let Chords ring 1x
D|---0-2-2h4------4------------2/4\2p0---------0----|    Strum the Chords softly 3x
B|--0-------------2--------------------3/5p0-- 0----|
E|----------------2--------------------------3-3----|
VERSE
E|-- 0 0------------------0-0----------- |
B|-- 0 0------------------0-0------------|
G|-- 0 0----------------- 0-0------------|  4x
D|-- 4 4----------------- 0-0------------|
B|-- 0h2----------------- 0-0------------|
E|-- 0h2----------------- 0h3------------|
Then again the intro fill after Chorus? ( Which will be tabbed and updated soon )
E|---------------------|
B|---------------------|
G|-----------2-4-------|
D|---0-2-2h4-----------|
B|--0------------------|
E|---------------------|
Then repeat Verse, Chorus? then Outro. ( Which is Verse until faded out )

Sometimes I Wish Tabs by City And Colour

 So I know that there are a few other tabs of this song on the site, but after trying 
them they don't seem
quite right to me. Here is what I think is right, but if I am wrong, please don't 
hesitate to comment below.
Enjoy.
This song is in Standard Tuning [EADGBe] with a capo on the 6th fret, all tabs are in 
relation to the capo.
I wasn't able to figure out a way to show the strumming pattern, so just listen to the 
song to get it right
(it's a fairly simple pattern) I also am not 100% positive on the solo, but I did my 
best and if you play
it at the right speed it sounds about right; once again, feel free to comment with any 
changes to the solo.
INTRO
e|---------------------0-----------------------0|
B|---------------------0-----------------------0|
G|------------2-2h4----0--2/4-2----------------0|
D|----0-2-2h4--------0-4--------2/4-2-0-0h2--0-4|
A|--2----------------2-2---------------------2-2|
E|-------------------0-0---------------------3-3|
BRIDGE
e|-0---0-|
B|-0---0-|
G|-0---0-|  x4
D|-4---0-|
A|-2---2-|
E|-0---3-|
VERSE
e|-0---0-|
B|-0---0-|
G|-0---0-|  x5
D|-4---0-|
A|-2---2-|
E|-0---3-|
BRIDGE
e|-0---0-|
B|-0---0-|
G|-0---0-|  x2
D|-4---0-|
A|-2---2-|
E|-0---3-|
VERSE
e|-0---0-|
B|-0---0-|
G|-0---0-|  x3
D|-4---0-|
A|-2---2-|
E|-0---3-|
SOLO
e|--------------------------------------------------------|
B|--------------------------------------------------------|
G|--------2-------------2------/7-6-2-4------/7-6-2---2h4-|
D|--2-4-----4~----2-4-4---4~------------4~----------4-----|
A|--------------------------------------------------------|
E|--------------------------------------------------------|
e|------------------------------------------------------------|
B|------------------------------------------------------------|
G|-/7-6-2-4------/7-6-2-4-------------2------2---2---2---2-4~-|
D|----------4~------------4~----4-2-4---4------4---4---4------|
A|------------------------------------------------------------|
E|------------------------------------------------------------|
e|------------------------------------------------|
B|------------------------------------------------|
G|-/7-6-2~--/4---/7-6-7-6-2~--/4---/7---6--2-4~---|
D|------------------------------------------------|
A|------------------------------------------------|
E|------------------------------------------------|
e|----------------------------------------------------|
B|----------------------------------------------------|
G|--11-11--9-9--7-6-2-0-------2------2---2---2---2-4~-|
D|----------------------4-2-4---4------4---4---4------|
A|----------------------------------------------------|
E|----------------------------------------------------|
VERSE
e|-0---0-|
B|-0---0-|
G|-0---0-|  x8
D|-4---0-|
A|-2---2-|
E|-0---3-|
LYRICS
[INTRO x 5 throughout first verse]
If I was a simple man,
Would we still walk hand in hand?
And if I suddenly went blind,
Would you still look in my eyes?
What happens when I grow old?
And all my stories have been told?
Will your heart still race for me?
Or will it march to a new beat?
If I was a simple man
[BRIDGE x 4]
[VERSE x 5]If I was a simple man,
I'd own no home, I'd own no land
Would you still stand by my side?
And would our flame still burn so bright?
Sometimes I wonder why,
I'm so full of these endless rhymes
About the way I feel inside
I wish I could just get it right
[BRIDGE x 2]
[VERSE x 3]If I was a simple man
And I could make you understand
There'd be no reason to think twice
You'd be my sun; you'd be my light
[SOLO]If I was a simple man...
If I was a simple man...
[VERSE x 8]Sometimes I wonder why
I'm so full of these endless rhymes
About the way I feel inside
I wish...
Sometimes...Sometimes...
Sometimes...Sometimes...
Sometimes...Sometimes...
Sometimes...Sometimes...
Sometimes...Sometimes...
Sometimes...Sometimes...

Ladies And Gentlemen chords – City And Colour V2

 City and Colour
"Ladies and Gentlemen"
Intro: ( Am ,  C ,  Am ) ( G ,  E ,  Am ) x2
Verse
Am C G F 
It's the poison running through your blood
Am C G F 
It's the broken levee that brought the flood
G Am F  x2
It's the loaded barrel of a gun
Chorus
Am G 
There is darkness rollin through everything
Em F 
Evil urges awakening
Am G 
The bitter souls who will never rest
Em F 
Good luck, Ladies and Gentlemen
( Am ,  C ,  Am ) ( G ,  E ,  Am ) x2
Verse
Am C G F 
It's on the days when you're lacking love
Am C G F 
And you hear the cry from the morning dove
G Am F  x2
Then you feel the breath leave your lungs
Chorus
Am G 
There is darkness rollin through everything
Em F 
Evil urges awakening
Am G 
The bitter souls who will never rest
Em F 
Good luck, Ladies and Gentlemen
Instrumental: ( G ,  F ,  G , Fx2) then back through
the chorus one more time
Thanks to ItsFordNotChevy for the original posting!

Sleeping Sickness chords – City And Colour V8

 Sleeping Sickness
City And Colour
Intro:
Em  -  C  -  G  -  G/F#  -  Em  -  C  -  G 
Verse 1:
G/F# Em C G      
I awoke only to find my lungs empty 
G/F# Em C G        
And through the night so it seems I'm not breathing 
G/F# Em C G 
And now my dreams are nothing like they were meant to be
G/F# Em C G 
And I'm breaking down, I think I'm breaking down
Verse 2:
G/F# Em C G 
And I'm afraid to sleep because of what haunts me
G/F# Em C G 
Such as living with the uncertainty
G/F# Em C G 
That I'll never find the words to say which would completely explain,
G/F# Em C G G/F#  (stop!)
Just how I'm breaking down
Chorus:
G Em C 
Someone come and, someone come and save my life
G Em 
Maybe I'll sleep when I am dead
C 
But now it's like the night is taking sides
G Em C 
With all the worries that occupy the back of my mind
G Em C 
Could it be this misery will suffice?
Em  -  C  -  G  -  G/F#  -  Em  -  C  -  G 
Verse 3: 
G/F# Em C G                   
I've become a simple souvenir of someone's kill 
G/F# Em C G 
And like the sea I'm constantly changing from calm to ill
G/F# Em C G  
Madness fills my heart & soul as if the great divide 
could swallow me whole
G/F# Em C G G/F#  (stop!)
Oh how I'm breaking down
Chorus
Bridge (Guitar solo over chorus) 
Chorus