Tag: cut

Deepest Cut chords – Get Scared

  ((Note: C2 can also be played as 032000 ( so basically the C chord with an open b string)).
 
verse One:

 Ah shit

  Em                   
 As my sky turns from autumn to ash
  C 
 I hate you more and more each day
  Em 
 As my mind grows angry by the hour
  C  
 My circumstances look so gray


[Bridge]:

  Am 
 Please don't forgive me
  Bm 
 I can't forgive myself
  Am Bm 
 The knife is planted in my back

Chorus:

  Em 
 I'm the deepest cut
  G 
 I'm the deepest wound
  C2 D 
 I'm the deepest lie you ever told
  Em 
 I'm the hardest part
  G 
 I'm the blackest heart
  C2 D 
 I'm the darkest night that's way too cold
  Em 
 I'm leaving 
  G 
 I'm leaving now
  C2 
 I'm leaving
  Dsus4 D 
 I'm the one that's always leaving you
 (always leaving you)


verse Two:

  Em 
 Like drilling holes deeper in my teeth
  C 
 I fake the smile on my face (I'm leaving)
  Em 
 Constantly shoving your fingers down my throat
  C 
 You know the best ways to bring the worst outta me

[Bridge]:

  Am 
 Please don't forgive me
  Bm 
 I can't forgive myself
  Am Bm 
 The knife is planted in my back

Chorus:

  Em 
 I'm the deepest cut
  G 
 I'm the deepest wound
  C2 D 
 I'm the deepest lie you ever told
  Em 
 I'm the hardest part
  G 
 I'm the blackest heart
  C2 D 
 I'm the darkest night that's way too cold
  Em 
 I'm leaving 
  G 
 I'm leaving now
  C2 
 I'm leaving
  Dsus4 D 
 I'm the one that's always leaving you


 You
 Leaving
 Leaving 
 Leaving
 Leaving you

  Em 
 I'm the deepest cut
  G 
 I'm the deepest wound
  C2 D 
 I'm the deepest lie you ever told
  Em 
 I'm the hardest part
  G 
 I'm the blackest heart
  C2 D 
 I'm the darkest night that's way too cold
  Em 
 I'm leaving 
  G 
 I'm leaving now
  C2 
 I'm leaving 
  Dsus4 D 
 I'm the one that's always leaving you

 
 Always leaving you
  D 
 Always leaving 

END 

I Cut My Brother In Half Blues Tabs by Dewey Cox

 , please correct away.
I just started playing and was frustrated that I couldn't find tab of this online.
After each line in the verse, just riff within the key using standard pentatonic scale style:
(E3-E6-A3-A4-A5-D3-D5-G3-G5-G6-B3-B5-E3)


Walking in
e--------4------------3-----------2-------------------------------|
b ----5-------------4-----------3---------------------------------|
g----4------4------3-----3-----2-----2----------------------------|
D-------------------------------------------3v--------------------|
A---------------------------------------------------1--2--3v------|
E-----------------------------------------------------------------|

Verse
e----------------------------------------------------------------|
b ---------------------------------------------------------------|
g----------------------------------------------------------------|
D----------------------------------------------------------------|
A---2--2----4--4---2--2----4--4----------------------------------|
E---0--0----0--0---0--0----0--0----------------------------------|

v - vibrato

Final Cut solo Tabs by Pink Floyd

 this is the solo to one of my favorite songs, the final cut by pink Floyd.

key

b= bend
/= slide

e|-----------20-----17-------------------------------------------------------|
B|---18b------------------------18---18b----------18---17--15--------15--17--|
G|-------------------------17-----------------------------------17-----------|
D|---------------------------------------------------------------------------|
A|---------------------------------------------------------------------------|
E|---------------------------------------------------------------------------|


e|---------------------------------------------------------------------------|
B|---17b-------15---15-------------------------------------------------------|
G|----------------------17b---14-14-----------12b--12b/10/0------------------|
D|----------------------------------------12---------------------------------|
A|---------------------------------------------------------------------------|
E|---------------------------------------------------------------------------|


e|---------------------------------------------------------------------------|
B|-----20b-----22b/20-------------15--18--18b----18--17--15------------------|
G|-----------------------------------------------------------17---15---------|
D|---------------------------------------------------------------------------|
A|---------------------------------------------------------------------------|
E|---------------------------------------------------------------------------|

e|---------------------------------------------------------------------------|
B|---------------------------------------------------------------------------|
G|-------14------12----------------------------------------------------------|
D|------------------------15/0-----------------------------------------------|
A|---------------------------------------------------------------------------|
E|---------------------------------------------------------------------------|