Tag: dave

Dog Log Tabs – Dave Brockie Experience

 My first post of 2016. Requested by jonnehboi.
According to Dave, this song dates back to the days of Death Piggy. And it shows.



All strings tuned half-step down.

INTRO
|-------------------------------------------------------------|
|-------------------------------------------------------------|
|-------------------------------------------------------------|
|-------0-2-0----0-0-0-2-0~--2--2-3-5-3-2----3-2-0---0-2-0----|
|--3--3-------3------------------------------------3-------3--|
|-------------------------------------------------------------| x4


VERSE
|--------------------------------------------------------|
|-------1-------------3------------5------------6--------|
|---------0---0---------2---2--------4---4--------5---5--|
|-----------2----0~-0-----0---2~-2-----2---3~-3-----3----|
|--3~-3--------------------------------------------------|
|--------------------------------------------------------| x3


|--------------------------------------------------------|
|-------1-------------3------------5------------6--------|
|---------0---0---------2---2--------4---4--------5---5--|
|-----------2----0~-0-----0---2~-2-----2---3~-3-----3----|
|--3~-3--------------------------------------------------|
|--------------------------------------------------------|
|
|Overlay
|----------------------------------------------------------|
|----------------------------------------------------------|
|----------------------------------------------------------|
|-----------------------------2~~----------3~~-------------|
|-----------------------------2~~----------3~~-\\Pick\\----|
|-----------------------------0~~----------1~~--\\Slide\\--|


CHORUS ("Fell off a waterfall")
|----------------------------------------|
|----------------------------------------|
|--9-x-9-x-9-x-12-x-10-x-10-x-10-x-10-x--|
|--9-x-9-x-9-x-12-x-10-x-10-x-10-x-10-x--|
|--7-x-7-x-7-x-10-x--8-x--8-x--8-x--8-x--|
|----------------------------------------|

|-----------------------|
|-----------------------|
|--9-x-9-x-9-x-12-x-10--|
|--9-x-9-x-9-x-12-x-10--|
|--7-x-7-x-7-x-10-x--8--|
|-----------------------|



Repeat             INTRO (Hold the final note)



VERSE 2 (First half has no guitar)
|------------------------|
|------------------------|
|--5~~----5\4~~---4/5~~--|
|------------------------|
|--3~~----3\2~~---2/3~~--|
|------------------------| x2


OUTRO PART 1
|------------------------------------------------|
|-------1~~---------1~~---------1~~---------1~~--|
|------------------------------------------------|
|--------------0~~-------0-2~~-------2-3~~-------|
|--3~~-------3-----------------------------------|
|------------------------------------------------| x2

|------------------------------------------------|
|-------1~~---------1~~---------1~~---------1~~--|
|------------------------------------------------|
|--------------0~~-------0-2~~-------2-3~~-------|
|--3~~-------3-----------------------------------|
|------------------------------------------------| x2
|
|------------------------------------------------------|
|-------1-1-1p0-----1-1-1p0-----1-1-1p0-----1-1-1p0----|
|---------------0-----------0-----------0-----------0--|
|------------------------------------------------------|
|------------------------------------------------------|
|------------------------------------------------------| x2

OUTRO PART 2
|--------------------------------------------------------|
|-------1~-1-1-------1~-1-1-------1~-1-1-------1~-1-1-1--|
|-------0~-0-0-------0~-0-0-------0~-0-0-------0~-0-0-0--|
|-------2~-2-2--0~-0-0~-0-0--2~-2-2~-2-2--3~-3-3~-3-3-3--|
|--3~-3-3~-3-3-------------------------------------------|
|--------------------------------------------------------| x3

|--------------------------------------------------------|
|-------1~-1-1-------1~-1-1-------1~-1-1-------1~-1-1-1--|
|-------0~-0-0-------0~-0-0-------0~-0-0-------0~-0-0-0--|
|-------2~-2-2--0~-0-0~-0-0--2~-2-2~-2-2--3~-3-3~-3-3-3--|
|--3~-3-3~-3-3-----------------------------

The Trip chords – Dave Rawlings Machine

 "The Trip" - Dave Rawlings Machine - Nashville Obsolete - 2015
                wranglingoutlaw

Intro -  |  G  |  C  |  G  |  G  |
         |  G  |  C  |  G  |  G  |
         |  C  |  C  |  G  |  G  |
         |  D  |  D  |  G  |  G  |

 G C 
 Whistles blowing, people get on trains
                G 
Without knowing where They're going
 G C 
 Someone's Daughter, someone's Sister, 
                  G 
someone's Teacher going down the road

 C 
 With a body, a handkerchief, 
        G 
And a hatchet from an unspeakable crime
 D 
 But there's no one waiting for Them, 
                      G 
There's no judgement down the line

 G C 
 Banjos ring and chickens squall, 
 G                      
 And little babies crow
 G C 
 The winter leaves, and the spring unwinds, 
     G 
And summer comes again You know

 C 
 Pink is the colour of My true love's dress, 
                  G 
And black is the colour of Her heart
 D 
 But I could never leave old Virgini',
     C G 
And so it never parts

 G C 
 Ebony face, ebony nails, 
              G 
Ebony coffin on the rails
 G C 
 Moving south, C-O-D, 
           G 
Going home to mother

 C 
 Some said for valor, for glory, 
     G 
for treasure, for pride
 D G 
 Sometimes brother hates brother

     C G 
So take a trip wherever Your conscience has to roam
      D C G 
It's much too hard to try to live a lie at home

 G C 
My boots are cracked with road dirt and asphalt, 
  G 
Spit, and broken dreams
 G C 
 Chewing gum and safety pins, 
          G 
All what hold Me in at the seams

 C G 
 My pegs are loose, my screws too tightly wound to get in tune
     D C G 
But I still try sometimes on those golden summer afternoons

    C G 
So take a trip wherever Your conscience has to roam
      D C G 
It's much too hard to try to live a lie at home

 |  G  |  C  |  G  |  G  |
 |  G  |  C  |  G  |  G  |
 |  C  |  C  |  G  |  G  |
 |  D  |  D  |  G  |  G  |

 G C 
 There's a picture of an old black man, 
 G 
 In a beaver hat
 G C 
 He wears a hidden smile 
       G 
And a pair of white spats
 
 C G 
 Don't pretend You didn't notice His stare
         D C G 
You're edgy, and sweating, and loaded for bear

 G C 
The skeletons dance tonight, 
            G 
Bring Your bottle and Your boots
 G C 
 And Your mandolin that Bianca -
    G              
Alatorre tried to shoot

 C G 
 Oh but what's a bullet hole or two between friends ?
     D C G 
And who can say when the well goes dry or where the story ends ?

    C G 
So take a trip wherever Your conscience has to roam
      D C <s

The Weekend chords – Dave Rawlings Machine

 "The Weekend" - Dave Rawlings Machine - Nashville Obsolete - 2015
                   wranglingoutlaw 

 C  
 I hit the weekend 
 G  
 Just like a freight
 Am  
 I got there early 
 F  
 I couldn’t wait

 C 
 I made a friend or two 
 G 
 Along the way
 Am 
 You want the detail 
 F 
 But what can I say

 Am 
 There’s the ballerina 
 F 
 The foreign cartel
 Am 
 The opera singer 
 D  
 The southern belle

 Am 
 They’ve all got something 
 F 
 Strange and new
 Am 
 They’ve all got something 
 D 
 But not like You

  C Em F   
Whoa..OH..oh..OH..oh..
  C Em F   
Whoa..OH..oh..OH..oh..
  C Em F   
Whoa..OH..oh..OH..oh..
  C Em F   
Whoa..OH..oh..OH..oh.. 

| G |  lick ( 0-1-3 on B string )

 C 
 It’ll take some time to get
 G 
 Back on course
 Am 
 I’ve got to find My 
 F 
 Runaway horse

 C 
 She was the best friend 
 G  
 A man ever had
 Am 
 Now I’m going down the road 
 D 
 Feeling bad

  C Em F   
Whoa..Oh..oh..Oh..oh..
  C Em F   
Whoa..Oh..oh..Oh..oh..
  C Em F   
Whoa..Oh..oh..Oh..oh..
  C Em F   
Whoa..Oh..oh..Oh..oh..

|  G  |  G  |  G  |

|  Am G  |  F Em  |  x4

 Am G F Em      
   Friday is forever..
 Am G F Em 
   Saturday flies past
 Am G F Em 
   Sunday start coming down 
 Am G F Em 
   The good ones never last...
 Am G F Em 
   The good ones never last...

 C 
 What became of the red rooster 
 G 
 After the tragedy
 Am 
 What became of You, girl 
 F 
 And what became of Me

And she said

 C 
 "I had good fortune 
 G 
 silver, silk and wool
 Am 
 I gave it all away and 
 D 
Now My heart is full"

  C Em F   
Whoa..Oh..oh..Oh..oh..
  C Em F   
Whoa..Oh..oh..Oh..oh..
  C Em F   
Whoa..Oh..oh..Oh..oh..
  C Em F   
Whoa..Oh..oh..Oh..oh..

|  C Em  |  F  | x4

 C 
 I hit the weekend 
 G 
 Just like a freight
 Am 
 I got there early 
 F C  ..
 I couldn’t  Wait

Petrol Cb Tabs – Dave Grohl

 -------------------------------------------------------------------------------
                             PETROL CB - Dave Grohl
-------------------------------------------------------------------------------
: Katie Winter
 katieemonsterr@hotmail.com

Tuning: Standard Tuning, but tune down half step on high "e" - E A D G B eb

I learned how to play this by ear and this is just what I 
heard; I believe this is at least 95% accurate if not 100%. It's pretty
easy to play and everything is short and sweet and to the point so
I have just combined everything as they are played to prevent any super-
short tab parts because it is pretty straight-forward. Also the lyrics I am
providing isn't 100% accurate because in the verses it is sort-of hard
to decipher what he is saying so it is just a guess on that.

Intro + Verse:
eb|-----------|--------------------------------------------------------------|
B|------------|--------------------------------------------------------------|
G|------------|--------------------------------------------------------------|
D|--3-3--3-3--|--3-3--10~10~10~-4~4~-3-3-10~10~10~---------------------------|
A|--3-3--3-3--|--3-3-----------------3-3-------------------------------------|
E|--1-1--1-1--|--1-1-----------------1-1-------------------------------------|

Chorus + Bridge:
eb|-------------------|------------------------------------------------------|
B|--------------------|------------------------------------------------------|
G|--------------------|------------------------------------------------------|
D|--3-3-3-3--5-5-5-5--|--4-4-4-4--6-6-6-6------------------------------------|
A|--3-3-3-3--5-5-5-5--|--4-4-4-4--6-6-6-6------------------------------------|
E|--1-1-1-1--3-3-3-3--|--2-2-2-2--4-4-4-4------------------------------------|

Outro 1 + Outro 2:
eb|----------0-----0------|-----------0-----0--------------------------------|
B|---------1---1-----1----|---------1---1-----1------------------------------|
G|-------2-------2-----2--|-------2-------2-----2----------------------------|
D|--3-3-------------------|--3-3---------------------------------------------|
A|--3-3-------------------|--3-3---------------------------------------------|
E|--1-1-------------------|--0-0---------------------------------------------|

(Intro)
(Verse x4)

(Verse)
She came over with her 
Brand new boyfriend, listen
We're building a relation
For the music shakes it

(Chorus)
There's that song again
There's that song again
There's that song again
There's that song again...

(Verse x4)
(Verse)
How come I could not cheat
If you're a colorful lover
I don't mind being one of them
I don't mind my, big deal

(Chorus)
(Bridge)
It's been thrown away again
It's been thrown away again
It's been thrown away again
It's been thrown away again...

(Verse x8)

(Chorus)

(Bridge)

(Outro 1 x3)
(Outro 2)
(Outro 1 until end)


************************************

| /   slide up
| \   slide down
| h   hammer-on
| p   pull-off
| ~   vibrato
| +   harmonic
| x   Mute note
| b   Bend
| pb  Pre-bend
| br  Bend release
| pbr Pre-bend release
| brb Bend release bend

************************************

Saltwater Hearts chords – Dave Gunning

 Dave Gunning - Saltwater Hearts


CAPO: 2nd Fret



INTRO:  Am G C Am G F G F G C F G C 
Saltwater hearts underneath the moon
          Am F G C 
Changing tides rolling like a tune
          F C G 
Into the days that keep ending much too soon
           Am F G C 
Saltwater hearts always drifting back to you


            F Dm7 G C 
I remember back to when we were young
              F Dm7 G C 
Our love was new like the morning sun
             F C G 
And all the battles we fought, we won
              Am F G C 
With healing words and the distance that we've come


           C F G C 
Saltwater hearts underneath the moon
          Am F G C 
Changing tides rolling like a tune
          F C G 
Into the days that keep ending much too soon
           Am F G C 
Saltwater hearts always drifting back to you


CHORUS:
         F C 
All the things that we love best
        F G Am 
Always seem to stand the test
        Em F 
In the shadows fear can hide
         C F 
But our dreams are still alive


INSTRUMENTAL:  Am F G C Am F G C F Dm7 G C 
Boats afloat and shipwrecks never found
         F Dm7 G C 
Carried chests that were buried in the ground 
          F C G 
Some had left their posts before their ships went down
               Am F G C 
The rest have gone, forever sleep without a sound


INTERLUDE:            Am F G C 
           Ooh, ooh, oooh, ooh, ooh, oooh
                      Am F G C 
           Ooh, ooh, oooh, ooh, ooh, oooh


CHORUS:
         F C 
All the things that we love best
        F G Am 
Always seem to stand the test
            Em F 
Behind the doors fear can hide 
           C F 
But we've swung them open wide


           C F G C 
Saltwater hearts underneath the moon
          Am F G C 
Changing tides rolling like a tune
          F C G 
Into the days that keep ending much too soon
           Am F G C 
Saltwater hearts always drifting back to you


OUTRO:   (## fade to end ##)
           Am F G Am G C Am G F 
Saltwater hearts always drifting back to you______
 Am G C Am G F 
You______
 Am G C Am G F 
You______
 Am G C Am G F 
You______

New Highway chords – Dave Gunning

 Dave Gunning - New Highway


CAPO: 2nd Fret



INTRO:  C F G   (4x)

    C F G 
My father came to Westville
     C F G 
And helped to build the town
      F C 
They damn near broke their backs
 Dm7 G 
Trying to break the ground
          C F G 
But some dreams are not for catching
      C F G 
They seldom ever stay
      F C 
They run like a river of our tears
 G C F G C F G 
Down the new highway


    C F G 
My mother was a tailor
     C F G 
She fashioned all my clothes
   F C 
I wore those burlap britches
        Dm7 G 
Down a dozen dusty roads
         C F G 
But she passed away in 'Sixty-Nine
       C F G 
Thank god before the day
     F C 
She didn't have to watch our dreams go
 G C      
Down the new highway


         Am G C 
Now the main street's dark and silent
       F C 
Not a shadow or a sound
     Am G C 
But midnight brings the spirits out
          Dm7 G 
From the coal mines in the ground
       C F G 
In my dreams they all come back again 
     C F    
The good folks of the day
 G F C 
They're all trying to save the life they knew from going 
 G C      
Down the new highway


INTERLUDE:  C F G   (4x)


    C F G 
My brother was a millwright
    C F G 
He helped to build my home
         F C 
But the work ran out as did my wife
     Dm7 G 
And now I'm all alone
     C F G 
Without a steady income
            C F G 
I couldn't ask for her to stay
      F C 
So I sent my love and my two young kids
 G C      
Down the new highway


INSTRUMENTAL:  Am G C F C Am G C Dm7 G C F G C F G C F G C F G 
I remember Freddy Landsburg
        C F G 
At the farm beside the road
      F C 
He'd wave to every passing car
    Dm7 G 
He never was alone
         C F G 
But the 4-lane left him breathless
         C F G 
When it took his view away
         F C                     
Now his spirit haunts the old roadside 
          G C  
Where it meets the new highway


     Am G C 
But all things come to pass
            F C 
You see it everywhere you turn
      Am G C 
It's just a big race to the finish line
    Dm7 G 
I hope someday we'll learn
          C F G 
But some dreams are not for catching
     

Take Five Tabs – Dave Brubeck V6

 Take 5:

Original played in 6th fret

5/4 timing

Intro/Background: 

      Am     Am     Em 
e-|-------------------------|
B-|-----1-----1------0------|
G-|-----2-----2------0------|
D-|-----2-----2------2------|
A-|--0-----0----------------|
E-|---------------0---------|


   Am        Em            Am               Em          Am            Em   Am     Em
e-|---------|---0----------------|--------------------|-------------------|-----------|
B-|-----1-3-|4-----4-3-1---------|--------------0-----|-------------------|-----------|
G-|---2-----|------------------0-|-2--------------2-0-|-2-----------0-----|-----------|
D-|-2-------|---------------2----|--------------------|---------------2-0-|-0h2-------|
A-|---------|--------------------|--------------------|-------------------|-----------|
E-|---------|--------------------|--------------------|-------------------|-----------|


   Am        Em            Am               Em          Am            Em   Am     Em
e-|---------|---0----------------|--------------------|-------------------|-----------|
B-|-----1-3-|4-----4-3-1---------|--------------------|-------------0-----|-----------|
G-|---2-----|------------------0-|-2------------0-----|---------------2-0-|--2--------|
D-|-2-------|---------------2----|----------------2-0-|-0h2---------------|-----------|
A-|---------|--------------------|--------------------|-------------------|-----------|
E-|---------|--------------------|--------------------|-------------------|-----------|

        Am       F                G        E7
e-|-5--8--5-----------------|----7--------------------|
B-|----------6-----5--6--7--|-8-----8--5-----------5--|
G-|-------------7-----------|-------------5--7--8-----|
D-|-------------------------|-------------------------|
A-|-------------------------|-------------------------|
E-|-------------------------|-------------------------|

   F            G              E7
e-|----5---------------------|-----------------------------|
B-|-6-----6--------------4---|-5---4--5--6--8--8--7--8--9--|
G-|----------7--4--5--7------|-----------------------------|
D-|--------------------------|-----------------------------|
A-|--------------------------|-----------------------------|
E-|--------------------------|-----------------------------|

   Am        F                G        E7
e-|-5--8--5-----------------|----7--------------------|
B-|----------6-----5--6--7--|-8-----8--5--------4--5--|
G-|-------------7-----------|-------------5--7--------|
D-|-------------------------|-------------------------|
A-|-------------------------|-------------------------|
E-|-------------------------|-------------------------|

    F        G                 E7
e-|----5--------------3---1--|-0--|
B-|-6-----6--------3---------|----|
G-|----------7--4------------|----|
D-|--------------------------|----|
A-|--------------------------|----|
E-|--------------------------|----|

Betty And Dupree chords – Dave Van Ronk

 Dave Van Ronk
Betty and Dupree
Standard Tuning
Capo 5

  
 E A A E A E                 
Well Betty told Dupree, she want a diamond ring
 A E A E A E 
Betty told Dupree, she want a diamond ring
 B7 A E A E A E 
Well Dupree says Betty, for you I'd do most anything

 E A A E A E  
Bought him a pistol, it was a .44
 A E A E A E 
Bought him a pistol, it was a .44
 B7 A E A E A E 
To get that diamond ring for Betty, Dupree'd to rob a jewelry store

 E A A E A E  
Police caught Dupree, put him in Atlanta jail
 A E A E A E 
Police caught Dupree, put him in Atlanta jail
 B7 A E A E A E 
Well he sent for his Betty, come and go his bail

Interlude: 
 E  /  A  /  E  /  A  /  D  /  A  /  E  /  A  /  E  /  A  /  E  /  A  /  E A  /  D  /  A  /  A  /  D  /  A  /  E  /  A  /  E  /  A  /  E  /  A  /  E B7  s/  Eb7 E  /  A  /  E  /  A  /  E  /  A  /  E E A A E A E  
Well she came to see him, but his face she could not see
 A E A E A E 
Yes she came to see him, but his face she could not see
 B7 A E A E A E 
Well said to the warden, give him this letter for me

 E A A E A E  
It said I came to see you but I could not see your face
 A E 
Yes I came to see you but I could not see your face
 B7 A E A E A E 
I just wanna tell you, nobody's gonna take your place


Interlude: 
 E  /  A  /  E  /  A  /  D  /  A  /  E  /  A  /  E  /  A  /  E  /  A  /  E A  /  D  /  A  /  A  /  D  /  A  /  E  /  A  /  E  /  A  /  E  /  A  /  E B7  s/  Eb7 E  /  A  /  E  /  A  /  E  /  A  /  E E A A E A E  
Well Betty told Dupree, she want a diamond ring
 A E A E A E 
Betty told Dupree, she want a diamond ring
 B7 A E A E A E 
Well Dupree says Betty, for you I'd do most a

Sister chords – Dave Matthews Band

 Dave Matthews Band - Sister

Capo.=2. (without capo conversion song from A)

Dave plays F#m = xx2002 (EBGDAE)



 G Fmaj7   
Passing time with you in mind
             C 
It’s another quiet night
                D 
Feel the ground against my back
               G 
Counting stars against the black


 G Fmaj7  
Think about another day
             C 
Wishing I was far away
                D 
Wherever I dreamed I was
               G 
You were there with me



(Chorus)
 C D 
Sister, I hear you laugh
               G 
My heart fills full up
 Em F#m 
Keep me please
 C D 
Sister, when you cry
            G 
I feel your tears
        Em F#m 
Running down my face
 C D 
Sister, sister, keep me


 G Fmaj7 
I hope you always know it’s true
              C 
I would never make it through
                    D 
You could make the sun go DARK 
               G 
Just by walking away


 G Fmaj7 
Playing like we used to play
             C 
Like it would never go away
                D 
I feel you beating in my chest
               G 
I’d be dead without



(Chorus)

 C D 
Sister, I hear you laugh
               G 
My heart fills full up
 Em F#m 
Keep me please
 C D 
Sister, when you cry
            G 
I feel your tears
        Em F#m 
Running down my face
 C D 
Sister, sister, you keep me




 G Fmaj7 
I hope you always know it’s true
              C 
I would never make it through
                    D 
You could make the heavens fall
               G 
Just by walking away



(Chorus)

 C D 
Sister, I hear you laugh
               G 
My heart fills full up
 Em F#m 
Keep me please
 C D 
Sister, when you cry
            G 
I feel your tears
        Em F#m 
Running down my face
 C D 
Sister, sister, you keep me

Little Boxes – Dave Dunn chords

 G Am 
I walk through my days
           F G 
    in a specified daze, 
         G Am F Em C  
         Speculation's, a specialization, of mine. 

 G Am 
Creating a maze, 
         F G 
     a complicated cage, 
                G Am F Em C 
         this map I've made, often betrays, the mind.

         G Am 
Little bins and little boxes, 
              F G 
     little t's met with crosses. 
 G Am F G Am 
Box after box I do put things in, 
      G Am F G Am 
     friends and foes, different kin, 
                   F Em C G C/G 
          and I fear, I'll begin, again. 
   
       C C/E Am G F 
The only little box I want to put you in,
            G Am 
     is a house a little home, 
                       F G 
            with a fence built in. 
             G Am 
     with windows and with doors
                     F G 
            and a bed within

      Am  (sus4)          Gsus4 Csus4 
A space to see the face of a friend. 
        Am  (sus4)              Gsus4 Csus4 
    A place to plead our case to the end. 
              Am  (sus4)    Gsus4 F G Am G 
          A hand to hold with a golden band. 

   G Am 
I wake up these days, 
       F G 
     plotting my way. 
 G Am 
Trudging through grey,  
      F Em C 
      becoming each day, this man. 

 G Am 
Loving a women, 
                        F G 
       whose not right and not wrong. 
              G Am 
She's not weak and not strong, 
               F Em C C/G 
        but loved forever long, by her man.     'Cause, 


  C C/E Am G F 
The only little box I want to put you in,
            G Am 
     is a house a little home, 
                       F G 
            with a fence built in. 
             G Am 
     with windows and with doors
                     F G 
            and a bed within

      Am  (sus4)          Gsus4 Csus4 
A space to see the face of a friend. 
        Am  (sus4)              Gsus4 Csus4 
    A place to plead our case to the end. 
              Am  (sus4)    Gsus4 F G Am G 
          A hand to hold with a golden band. 

Satisfied With You chords – Dave Clark Five

 Satisfied With You:Dave Clark Five.
#50 on CASH BOX and #51 on BB Hot 100
on EPIC Records in 1966.

INTRO:  C F G .. C F G 

#1.
 C G 
I can see no reason but you're acting so strange.
 G C 
Now, put your trust in me, you should try for a 
 C7 
change.

CHORUS:
             F 
And I'll be satisfied with you, girl..I'll be 
 C A 
satisfied with you.
           D G C G 
You'll be satisfied with me, wait and see.

#2.
      C G 
Now, don't be too concerned about what your friends 

might say.
 G C 
Cause you're with me tonight and I'm gonna make you 
 C7 
stay.

CHORUS:
             F 
And I'll be satisfied with you, girl..I'll be 
 C A 
satisfied with you.
           D G C G 
You'll be satisfied with me, wait and see.


INTERLUDE:  C G C C7 

OUTRO:
              F 
Yes, I'll be satisfied with you, girl..I'll be 
 C A 
satisfied with you.
           D G C F C 
You'll be satisfied with me, wait and see....(Fade.)


A sixties smash from Kraziekhat.

Please Tell Me Why chords – Dave Clark Five

 Please Tell Me Why:Dave Clark Five.
#18 CASH BOX and # 28 on BB Hot 100 on
EPIC Records in 1966.

INTRO:  C D C .. G C G 

#1.
 C G C F C G 
I don't know why she won't love me, Lord, please tell 
    C G 
me why.
 C G C F C G C 
Maybe it's that she don't love me..could it be she's shy.

#2.
 Dm7 G D 
If she's shy then I'll understand, I'll make the first 
          G 
move and hold her hand.
 C G C F C G C 
But if I'm wrong then I'll be mad..la-da-da-da-da.

BRIDGE:
 Bb Eb F C G 
I've been trying, oh, so hard, but she don't seem to 
 C 
notice.
 Bb Eb F C G C 
I sit next to her in class, but she can't see my motive.


INTERLUDE:  D C G .. C G C 

#3.
 C G C F C G C    
Do you think she has a boy..if she has, then I'm done.
 G C G C F C G C 
Cause if he catches me with her, I think I'll have to run.
 Dm7 G D 
If she's passive, she'll understand..I'll value my love,
                G 
but not in her hands.

OUTRO:
 C G C F C G C 
But if I'm wrong then I'll be mad..la-da-da-da-da.
 C G C C G C 
La-da-da-da-da..la-da-da-da-da..(Fade.)


A sixties smash from Kraziekhat.

Diamonds chords – Dave Baxter

 This is just a really rough chording of Diamonds because I couldn't find any 
online. I'm sure there are chords missing but I wasn't sure what they were. feel 
free to add if you can :)

Verse 1:

 E Dbm B 
  No one was around, we know this place
 E Dbm B 
  The other side of town, but it's not a race
 E Dbm B 
  We hadn't slept for a while, went out of sorts
 E Dbm B 
  You came with me that night. You wanted more

Chorus:

 A Dbm B A 
  So I took you to the diamonds
 A Dbm B A 
  We were healing, we were silent
              Dbm B A 
There I kissed you to save the moment

(Instrumental)  Dbm B 

Verse 2:

 E Dbm B 
  I look back sometimes and let it flow
 E Dbm B 
  We never said goodbye, so I'll never know
 E Dbm 
  How you kept my heart undone
                   B E 
I can hear your voice, with me
               Dbm B 
I wish tonight, we came so close


Chorus 2:

 A Dbm A 
  So I ran back to the diamonds
                  Dbm B A 
 To the last place that i saw you
              Dbm B A Dbm B A 
Where I tried to reclaim the moment (reclaim the moment)


(instrumental)   Dbm B A Dbm B A  
Oooooo ooooooo ooohhhhh (x3)


Final Chorus:

 A Dbm B A 
  So I went down to the diamonds
                  Dbm B A 
 To the last place that i saw you
                  Dbm B A 
Where I looked for  my losses
 Dbm B A 
 my  losses (x4)


outro:
 Dbm B A  (x3)

Ive Got To Have A Reason chords – Dave Clark Five

 I've Got To Have A Reason:Dave Clark Five.
#44 on BB Hot 100 on EPIC Records in 1967.

#1.
 G C G D C F E 
I've got to have a reason....I got to have a reason..
 E A D G D G D 
I got to have a reason why you're walking out on me.
 D Am Em C G 
There's something on your mind but you won't tell me.
 D Em C D 
Mmm, tell me why you're crying and I will help you,

help you, help you.

#2.
 G C G D C F E 
But I gotta have a reason....I got to have a reason..
 E Am C G 
I got to have a reason why you're walking out on me.

BRIDGE:
 D Em C G 
If there is someone else, then I would like to know.
 Em C D C D  
Gonna find out if you won't tell me, tell me, tell me.

#2.
 D G D F E 
But I gotta have a reason....I got to have a reason..
 E Am C G 
I got to have a reason why, you're walking out on me.
        A D A 
If you tell me what you're thinking everything will be 
   D 
alright. (everything will be all right.) 
 A D 
Love will never leave your side (love will never leave your side) 
        C D 
if you place your trust in me.

OUTRO:
   G D F E 
I got to have a reason....I got to have a reason..
 E Am C G D 
I got to have a reason why you're walking out on me.

OUTRO:
 D G D C F D G 
I got to have a reason...I got to have a reasoooon.


A sixties smash from Kraziekhat.

Crush chords – Dave Matthews Band V3

 Crush by Dave Matthews Band
    Bm GM7 D DM7 G G4 G/A Am7 C G/B E D E C E F9 G C G E 
E|---------------------------------------------|-----------------|----------------------|
B|--3---3---2---2------------------------------|-----------------|----------------------|
G|--4---0---3---2---4---5---4---5---5---4---4--|--7---9---5---4--|--12--12--12--12---4--|
D|--4---4---0---0---5---5---5---5---5---5---2--|--7---9---5---2--|--10--12--10---9---2--|
A|--2---2---x---x---x---x---x---x---3---2---2--|--5---7---3---2--|---8--10--10--10---2--|
E|----------2---2---3---3---5---5-----------0--|--------------0--|-------------------0--|

 Bm Bm GM7 D DM7 G G4 G/A Am7 C G/B Bm 
Crazy how it feels tonight Crazy how you  make it all alright, love 
        GM7 D DM7 G G4 G/A Am7 C G/B Bm 
Crush me   with the things you do And I'd do   for you     anything too, oh 
         GM7 D DM7 G G4 G/A Am7 C E   
Sitting, smoking, feeling high And in this moment,   oh, it feels so right
 D E C E 
Lovely lady, I am at your feet Oh, God, I want you so badly
 D E C Bm 
And I wonder this could tomorrow be So wondrous as you there sleeping
         GM7 D DM7 G G4 G/A Am7 C G/B Bm 
Let's go  drive 'til morning comes Watch the sunrise   and fill our souls up 
                 GM7 D DM7 
We'll drink some   wine 'til  we get drunk, yeah 
     F9 G C G F9 G C        
Its crazy Im thinking Just knowing that the world is round Im here Im dancing  
 G F9 G C G F9 G C E 
on the ground am I right side up or upside down And is this real O am dreamin
 D E C E 
Lovely lady, let me drink you, please Won't spill a drop, no, I promise you 
 D E C Bm 
Lying under this spell you cast on me Each moment the more I love you 
         GM7 D DM7 
Crush me, come on, oh, yeah
     F9 G C G F9 G C        
Its crazy Im thinking Just knowing that the world is round Im here Im dancing  
 G F9 G C G F9 G C E 
on the ground am I right side up or upside down And is this real O am dreamin
 D E C E 
Lovely lady, I will treat you sweetly Adore you, I mean you crush me 
 D E C Bm 
And it's times like these When my faith, I feel it I know how I love you 
         GM7 D DM7 
Come on,   come on, baby
      F9 G C G F9 G  
It's crazy I'm thinking Just as long as you're a

Ants Marching solo Tabs by Dave Matthews Band

 -------------------------------------------------------------------------------
                             Ants Marching - Dave Matthews Band
                              ( carter sax solo for guitar)
-------------------------------------------------------------------------------
: Greg Reo
 gregdreo@earthlink.net

Tuning: Standard

e|--12---10----15--14---14h15p14--12----15p14--15p14--12--10--14---12----------|
B|-----------------------------------------------------------------------------|
G|-----------------------------------------------------------------------------|
D|-----------------------------------------------------------------------------|
A|-----------------------------------------------------------------------------|
E|-----------------------------------------------------------------------------|

e|--12--12p10--12p10-------------------------10h12--10h12--10h12---------------|
B|-----------------------10h12p10--12--12--------------------------------------|
G|-----------------------------------------------------------------------------|
D|-----------------------------------------------------------------------------|
A|-----------------------------------------------------------------------------|
E|-----------------------------------------------------------------------------|

e|--10--12--10--8--10--12--14--12-----14--12--10--12---------------------------|
B|-----------------------------------------------------------------------------|
G|-----------------------------------------------------------------------------|
D|-----------------------------------------------------------------------------|
A|-----------------------------------------------------------------------------|
E|-----------------------------------------------------------------------------|

e|--14--15--17--15--14--12--9--10----------------------------------------------|
B|-----------------------------------------------------------------------------|
G|-----------------------------------------------------------------------------|
D|-----------------------------------------------------------------------------|
A|-----------------------------------------------------------------------------|
E|-----------------------------------------------------------------------------|



************************************

| /   slide up
| \   slide down
| h   hammer-on
| p   pull-off
| ~   vibrato
| +   harmonic
| x   Mute note
| b   Bend
| pb  Pre-bend
| br  Bend release
| pbr Pre-bend release
| brb Bend release bend

************************************

Look Before You Leap chords – Dave Clark Five

 Look Before You Leap:Dave Clark Five.
#50 on BB Hot 100 on COLUMBIA Records
in 1966.

INTRO:  F# D Bm G A 

CHORUS:
 A D A D 
You got to look before you leap, there's heartaches 
  A F#m A 
around every cor..ner.
 A D A D 
You got to look before you leap, there's heartaches 
  A F#m A 
around every cor..ner.

#1.
 A D A D 
Well, one fine day I met this girl..she was oh, so fine.
       A D A 
Well, she said, 'Boy, I'm gonna love, love, love you, for 
             D 
a long long time'
                    G E A D 
Now, I said 'wait..huh..wait..wait. wait..

CHORUS:
 A D A D 
You got to look before you leap, there's heartaches 
  A F#m A 
around every cor..ner.
 A D A D 
You got to look before you leap, there's heartaches 
  A F#m A 
around every cor..ner.

#2.
 A D A 
Well, she said, 'Right, I'm gonna prove you're wrong, just 
              D 
you wait and see.
 Bm A D A D 
Now, take my hand and look into my eyes, and you'll disagree.
                  A E A D 
But I said 'Now, wait..wait..wait..wait..'

CHORUS:
 A D A D 
You got to look before you leap, there's heartaches 
  A F#m A 
around every cor..ner.
 A D A D 
You got to look before you leap, there's heartaches 
  A F#m A 
around every cor..ner.

#3.
 Am7 A D Am7 D 
Well, now that she has seen the light, it was understood.
           A D A 
Cause the very next day she walked away with someone else,
                 D 
like I knew she would.
                  A E A D 
So, I said 'Now, look..look..look..look..

CHORUS:
 A D A              
You got to look before you leap, (believe me, baby) 
         D A F#m A 
there's heartaches around every cor..ner.
 A D A              
You got to look before you leap, (I'm telling you, now) 
         D A F#m A 
there's heartaches around every cor..ner.

OUTRO:
 A D A 
So, look..look..look before you leap..(Fade.) 


A sixties smash from Kraziekhat.

He Was A Friend Of Mine chords – Dave Van Ronk

 #-------------------------------PLEASE NOTE-------------------------------------#
# This file is the author's own work and represents their interpretation of the #
# song. You may only use this file for private study, scholarship, or research. #
#-------------------------------------------------------------------------------#
He Was A Friend Of Mine chords
Dave Van Ronk  (traditional song, earliest version as Shorty George 1939, author(s) unknown)

Capo III

 G D G 
He was a friend of mine
 D G 
He was a friend of mine
 C G D 
never had no money
                G 
To pay for his fine
 G D G 
he   was a friend of mine

 D G 
He died on the road
 D G 
He died on the road
 C G D 
never had no money
                G 
To pay for his board
 G D G 
he   was a friend of mine

 D G 
He never done no wrong
 D G 
He never done no wrong
 C G D 
He was just a poor boy
                 G 
A long way from home
 G D G 
he   was a friend of mine

 G D  2x   C G D G G D G D G 
I stole away and cried
 D G 
I stole away and cried
 C G D 
I never had no money
                     G 
And I can t be satisfied
 G D G 
he   was a friend of mine

 D G 
He was a friend of mine
 D G 
He was a friend of mine
 C G D 
When I hear his name
                                 G 
you know I just can t keep from crying
 G D G 
he   was a friend of mine

 D G  . .

Set8

Another Time And Place chords – Dave Van Ronk V2

 #-------------------------------PLEASE NOTE-------------------------------------#
# This file is the author's own work and represents their interpretation of the #
# song. You may only use this file for private study, scholarship, or research. #
#-------------------------------------------------------------------------------#
Another Time and Place chords
Dave Van Ronk 1995 (From Another Time and Place album)

Capo II

 D G D  2x  Bm D G A  ( A Asus4 A )   D G D D 
When first I met you years ago, 
     G D 
in another time and place 
  
A thought came to my mind,
           G D  
I'd never seen a kinder face
 Bm D 
Or warmer laugh and gentler smile,
    G A     ( A / Asus4 / A ) 
or eyes so full of light
     D  
I'd be a fool if I didn't fall 
    G D 
in love with you that night

 D G D D 
We've tramped around the world my dear, 
     G D 
our fortune was to roam 
  
But each place that I've been with you, 
      G D 
that place has been my home
 Bm D 
If now I wander on alone, 
      G A    ( A / Asus4 / A )
with no place to abide 
      D 
I'll be content for I was sent, 
       G D 
those wanderings at your side

 D G D D 
Love that blossoms in the night, 
       G D 
can't stand the test of time 

It ebbs and flows it comes and goes, 
    G D 
no reason reach nor rhyme
    Bm D 
As each day becomes another day, 

      G A    ( A / Asus4 / A )
each year another year
     D  
I'd trade a year in heaven,
       G D 
for a day with you my dear

 D G D D 
The miles flow on and I am gone, 
      G D 
to a wild and empty land 

Time is like an empty room, 
     G D 
and space an empty hand
         Bm D 
And the things we said and the jokes we made, 
     G A     ( A / Asus4 / A )
are echoes in the waste 
       D 
we'll meet again when hills are green, 
     G D 
in another time and place

 D G D  2x  Bm D G A  ( A Asus4 A )   D G D D 
When first I met you years ago, 
     G D 
in another time and place 
  
A thought came to my mind,
           G D  
I'd never seen a kinder face
 Bm D 
Or warmer laugh and gentler smile,
    G A     ( A / Asus4 / A ) 
or eyes so full of light
     D  
I'd be a fool if I didn't fall 
    G D 
in love with you that night

 D G D 

set8

Down At The Scene chords – Dave Clark Five

 At The Scene:Dave Clark Five.
#13 on Cash Box and # 18 on BB
Hot 100 on EPIC Records in 1966.

INTRO:  D C Bb F .. C Bb F G 

#1.
 C F G C 
Everyone who is lonely, I've got a place for you.
 C F G E C 
Where the music play-ay-ay-ay-ays, til way past two.

CHORUS:
 C G 
Come along now..let's go down to the scene.
(Well, what's it like there?)
                     C 
Meet me down at the scene.
(Tell me more, tell me more.)
 C F G 
You'll live just like a queen, when you're down at 
     C Am 
the scene.

#2.
 C F G C 
There's no need to be fancy, no one there will stare.
 C F Bm G 
Dress in all the things you usually do, there's no need 
    C 
to care.

CHORUS:
 E C G 
Come along now..let's go down to the scene.
(Well, what's it like there?)
                     C 
Meet me down at the scene.
(I'm comin', I'm comin'.)
 C F G 
You'll live just like a queen, when you're down at 
     C Am 
the scene.

#3.
 C F G C 
Everyone who is lonely, I've got a place for you.
 C F G E C 
Where the music play-ay-ay-ay-ays, til way past two.

CHORUS:
 C G 
Come along now..let's go down to the scene.
(Well, what's it like there?)
                     C 
Meet me down at the scene.
(Tell me more, tell me more.)
 C F G 
You'll live just like a queen, when you're down at 
     C Am 
the scene.

OUTRO:
 G C 
When you're down at the scene..
 G C 
When you're down at the scene..


A sixties smash from Kraziekhat.