Tag: deep

Rolling In The Deep guitar chords by Adele

[Intro]
C5
[Verse 1]
C5               G5
There's a fire starting in my heart,
Bb5                                G5                 Bb5
Reaching a fever pitch and it's bringing me out the dark
C5              G5             
Finally, I can see you crystal clear.
Bb5                           G5                 Bb5  
Go ahead and sell me out and I'll lay your ship bare.
C5                     G5  
See how I leave, with every piece of you
Bb5                       G5                  Bb5
Don't underestimate the things that I will do.
C5                G5  
There's a fire starting in my heart,
Bb5                                G5                   Bb5
Reaching a fever pitch and it's bringing me out the dark
[Pre-Chorus 1]
Ab               Bb                      Gm   
The scars of your love, remind me of us.
Ab                           Ab   
They keep me thinking that we almost had it all
Bb                        Gm      
The scars of your love, they leave me breathless
G
I can't help feeling...
[Chorus]
Cm                   Bb
We could have had it all... (I wish you, never had met me)...
Ab                                           
Rolling in the Deep (Tears are gonna fall, rolling in the deep)
Bb                                Cm           Bb
Your had my heart... (I wish you)... Inside of your hand (Never had met me)
Ab                                                                   Bb
And you played it... (Tears are gonna fall)... To the beat (Rolling in the deep)
[Verse 2]
C5               G5
Baby I have no story to be told,
Bb5                                G5                  Bb5
But I've heard one of you and I'm gonna make your head burn.
C5                   G5
Think of me in the depths of your despair.
Bb5                          G5                  Bb5
Making a home down there, as mine sure won't be shared.
[Pre-Chorus 1]
Ab               Bb                      Gm   
The scars of your love, remind me of us.
Ab                           Ab   
They keep me thinking that we almost had it all
Bb                        Gm      
The scars of your love, they leave me breathless
G
I can't help feeling...
[Chorus]
Cm                   Bb
We could have had it all... (I wish you, never had met me)...
Ab                                           
Rolling in the Deep (Tears are gonna fall, rolling in the deep)
Bb                                Cm           Bb
Your had my heart... (I wish you)... Inside of your hand (Never had met me)
Ab                                                                   Bb
And you played it... (Tears are gonna fall)... To the beat (Rolling in the deep)
Ab       Bb
We could have had it all 
Cm       Bb
Rolling in the Deep 
Ab                                    
Your had my heart Inside of your hand 
Bb 
And you played it To the beat 
[Verse 3]
N.C.
Throw yourself through ever open door (Whoa)
N.C.
Count your blessings to find what look for (Whoa-uh)
C5
Turn my sorrow into treasured gold (Whoa)
C5
And pay me back in kind- You reap just what you sow.
[Pre-Chorus 2]
Cm             Bb                        Ab 
(I wish you...)    We could have had it all (Tears are gonna fall... Rolling in the deep) 
Bb                Cm                       Bb
We could have had it all yeah ( I wish you... never had met me)
Ab
It all. (Tears are gonna fall)                            
It all, It all (Rolling in the deep)
[Chorus]
Cm                   Bb
We could have had it all... (I wish you, never had met me)...
Ab
Rolling in the Deep (Tears are gonna fall, rolling in the deep)
Bb                                Cm           Bb 
Your had my heart... (I wish you)... Inside of your hand (Never had met me)
Ab                                                                   Bb
And you played it... (Tears are gonna fall)... To the beat (Rolling in the deep) 
Cm 
We could have had it all... (I wish you, never had met me)...
Ab   
Rolling in the Deep (Tears are gonna fall, rolling in the deep)
Bb                                Cm           Bb
Your had my heart... (I wish you)... Inside of your hand (Never had met me)
Ab           
But you played it. You played it. You played it.
Bb              Cm
You played it to the beat.

Happy Judgement Day chords by Neck Deep

[Intro]
Ab Eb Ebm B Ebm Ab
B Ebm Ab B
[Verse 1]
Gb        E          Gb Ebm
Oh what a time to be    alive
B    Gb                 B
Wake up and smell the dynamite
Gb            E                    Gb
And keep your eyes locked tight to that screen
Abm
And don't believe everything that you see
E                    Gb           B
You will find modern life's a catastrophe
[Chorus]
Gb         B           Ebm            Ab            Ebm
Is it just me or does anyone else feel like this could be farewell?
E                     B         Gb
Oh, we almost had it then we pissed it all away
Ab
Building walls, dropping bombs
Gb       B                  Gb
Stop the world, I’m getting off
E
Oh, we almost had it
B                   Gb
Never thought I’d see the day
Abm               Eb B
When the world went up in flames
Abm          B
When the world went up in flames
[Verse 2]
Gb          Abm          Gb            B
We all worship celebrities, desperate for an identity
Gb                                               B
But cigarettes and MDMA don’t give you substance
Gb
You don’t think about what you say
Abm
Cause your mouth is bigger than your brain
E                Gb                      Gbm
It's a shame, so fake and you’re all the same
[Instrumental]
Abm
[Chorus]
Gb   B                     Ebm        Ab            Ebm
Is it just me or does anyone else feel like this could be farewell?
E                               B   Gb
Oh, we almost had it then we pissed it all away
Ab              Gb
Building walls, dropping bombs
B
Stop the world, I’m getting off
Gb                E
Oh, we almost had it
B                         Gb
Never thought I’d see the day
Ab
When the world went up in flames
[Bridge]
Abm
There's a Black cat in the windows of Parliament
There’s a man in the back of a black cab, talking about the good days
Ab          Eb E
When it all went up in flames
Gb
(Happy Judgement Day)
Ab   Eb    E
It all went up in flames
Gb             Ab
(Happy Judgement Day)
[Solo]
B Ebm Ab Ebm B
Ebm Abm B Gb Ab
B Ebm Ab
[Chorus]
Db         Ab          Bbm                     Fm
Is it just me or does anyone else feel like this could be farewell?
Gb                    Db            Ab
Oh, we almost had it then we pissed it all away
Bbm                   Ab
Building walls, dropping bombs
Db
Stop the world, I’m getting off
Ab        Gb
It’s been a long time coming
Db          Ab
Never thought I’d see the day
Ebm
It’s been a long time coming
Ab
Never thought I’d see the day
Bbm                Db
When the world went up in flames
Bbm           Db
If the world went up in flames

Soul Deep chords – Eddy Arnold

 C F C F 
Darling I don't know much I know I love you so much
C F 
My life depends on your touch
C F C 
And my love is a river running soul deep
F C 
Way down inside me it's soul deep
F G7 C 
It's too big to hide and it can't be denied
F C G7 C 
My love is a river running soul deep soul deep
F C F 
I work myself to death for ya just to show I adore ya
C F 
Nothing I wouldn't do for ya
C F C 
Cause my love is a river running soul deep
F C 
Way down inside me it's soul deep
F G7 C 
It's too big to hide and it can't be denied
F C G7 C 
My love is a river running soul deep soul deep
Am F G7 
All I am or ever hoped to be depends on your love for me
C Am 
Baby believe me if you'd do leave me
F A# C 
I'd be nothing but an empty shell I know darn well
C F C F 
Darling I don't know much I know I love you so much
C F 
My life depends on your touch
C F C 
And my love is a river running soul deep
F C 
Way down inside me it's soul deep
F G7 C 
It's too big to hide and it can't be denied
F C G7 C 
My love is a river running soul deep soul deep

O The Deep Deep Love Of Jesus chords – Hymn

 Em B7 Em B7 Em 
O the deep, deep love of Jesus
G D G Em Am B7 
Vast unmeasured, boundless free
Em B7 Em B7 Em 
Rolling as a      mighty ocean
G D G Em Am B7 Em 
In its fullness ov-er   me
G D Em B7 
Underneath me, all around me
Em D           Em-Am   B7 
Is the current of Thy    love
Em B7 Em B7 Em 
Leading on-ward, leading  homeward
G D G Em Am    B7-Em
To my glorious rest above
Em B7 Em B7 Em 
O the deep, deep love of Jesus
G D G Em Am B7 
Spread His praise from shore to shore
Em B7 Em B7 Em 
How he lov-eth, ever loveth
G D G Em Am B7 Em 
Changeth nev-er, nev-er more
G D Em B7 
How He watches o’er His loved ones
Em D Em Am B7 
Died to call them all His own
Em B7 Em B7 Em 
How for them He intercedeth
G D G Em Am B7 Em 
Watcheth o’er them from the throne
Em B7 Em B7 Em 
O the deep, deep love of Jesus
G D G Em Am B7 
Love of every  love the best
Em B7 Em B7 Em 
‘Tis an ocean vast of blessing
G D G Em Am B7 Em 
‘Tis a haven sweet of rest
G D Em B7 
O the deep, deep love of Jesus
Em D Em Am B7 
‘Tis a heav’n of heav’ns to  me
Em B7 Em B7 Em 
And it lifts me up to glory
G D G Em Am B7 Em 
For it lifts me up to Thee

Deep Web Tabs – Magic Potion

 Here: https://www.youtube.com/watch?v=qlyrU-lFpDc
Tunning: STANDARD
INTRO
E---------7---5-----------------------------
B-5/7~--7---7---7---7------5--7--5----------
G-5/7~------------7-----------------7~------
D------------------------7--7---------------
A-------------------------------------------
E-------------------------------------------
E---------5--3------------------------------
B----3--5------3-------3--5--6~--5--3-------
G-------------------------------------------
D--5-----------------5----------------------
A-------------------------------------------
E-------------------------------------------
*************************************************************
VERSE
E----------------------------------------
B----------------------------------------
G------7--9-9/10-9-7~--------------------
D--7h9-----------------------------------
A----------------------------------------
E----------------------------------------
ONLY IN VERSE 2
E---------------------------------|---------
B--9b10-b10-b10-b10--b10r9-8-7~---|-5~------
G---------------------------------|-----7~--
D---------------------------------|---------
A---------------------------------|---------
E---------------------------------|---------
E----------------------------------------
B-----------5----5h7--5~----7------------
G--7~----7-----7--------------4-7~-------
D----------------------------------------
A----------------------------------------
E----------------------------------------
*********************************************
INTRO
VERSE
*********************************************
SOLO
E------------------------------------------------------------------
B--12b13-12b13-12b13-12b13r12-10-----10--12------------------------
G---------------------------------11---------11---9--7-9-9/11~------
D------------------------------------------------------------------
A------------------------------------------------------------------
E------------------------------------------------------------------
E------------------------------------------------------------------
B--12b13-12b13-12b13-12b13r12-10-----10--12------------------------
G---------------------------------11---------11---9--7-9-9-7~------
D------------------------------------------------------------------
A------------------------------------------------------------------
E------------------------------------------------------------------
E-------------------------------------------------------------------------------
B--12b13-12b13-14-14-12-10-----10--12----------------------10--10/12-10---------
G---------------------------11--------11---9--7-9-9-11~--11--11--------11--9----
D-------------------------------------------------------------------------------
A-------------------------------------------------------------------------------
E-------------------------------------------------------------------------------
E--------------------------------------------------------------
B--12b13-12b13-14-14-14/15-15--15/17-15------------------------
G----------------------------------------16-14-----------------
D----------------------------------------------16---17/9/8-----
A--------------------------------------------------------------
E--------------------------------------------------------------
E------------------------------------------------------------------
B------------------------------------------------------------------
G-----------------------7-7~--7------------------------------------
D------------------7--9--------9-7---------------------------------
A--5~------5-7-7/9-----------------9-7--------------5-----5~-------
E------5h7-----------------------------10--7-5-5h7----7-5----------
E------------------------------------------------------
B------------------------------------------------------
G---------------------7--9/10~-9~-7~---9/10~-9~-7------
D----------------7--9-----------------------------9~---
A--------5-7-7/9---------------

Deep Six Tabs – Marilyn Manson V2

 Marilyn Manson - Deep Six
Tuning: eBGDAE
Video lesson: https://www.youtube.com/watch?v=3DzFdIb8u-A
Intro
e||------------------------|
B||------------------------|
G||------------------------|
D||------------------------|
A||----2---2------2----2---|
E||-0----0---0-3----1----1-| 2x
e||------------------------|
B||------------------------|
G||------------------------|
D||------------------------|
A||----2---2------2----2---|
E||-0----0---0-3----1------| 2x
Verse
e||------------------------|
B||------------------------|
G||------------------------|
D||------------------------|
A||----2---2------2----2---|
E||-0----0---0-3----1----1-|
Chorus 1
e||---------------------------|
B||---------------------------|
G||---------------------------|
D||---------------------------|
A||-2-2--2-2--2-3--2-2--2-3-2-|
E||-0-0--0-0--0-1--0-0--0-1-0-|
e||---------------------------|
B||---------------------------|
G||---------------------------|
D||---------------------------|
A||-2-2--2-2--2-5-5-5-3--3--3-|
E||-0-0--0-0--0-3-3-3-1--1--1-|
Chorus 2
e||---------------------------|
B||---------------------------|
G||---------------------------|
D||---------------------------|
A||-2-2--2-2--2-3--2-2--2-3-2-|
E||-0-0--0-0--0-1--0-0--0-1-0-|
e||------------------------------|
B||------------------------------|
G||------------------------------|
D||------------------------------|
A||-2-2--2-2--2-5-5-5-12--12--12-|
E||-0-0--0-0--0-3-3-3-10--10--10-|
e||---------------------------------------------------------|
B||---------------------------------------------------------|
G||---------------------------------------------------------|
D||---------------------------------------------------------|
A||-9-9--9-9-9--7-7--7-7-7--12-12--12-12-12--5--5-5-5-7-7-7-|
E||-7-7--7-7-7--5-5--5-5-5--10-10--10-10-10--3--3-3-3-5-5-5-|
e||------------------------------------------------|
B||------------------------------------------------|
G||------------------------------------------------|
D||------------------------------------------------|
A||-9-9--9-9-9--7-7--7-7-7--5-5--5-5-5--5-5--5-5-5-|
E||-7-7--7-7-7--5-5--5-5-5--3-3--3-3-3--3-3--3-3-3-|
Chorus (Lead)
e||--------------------------------------------------|
B||----7--------7-----7----7-------------------------|
G||----7-9-7----7-9-7-9b11-9b11r9-7-9-7----7---------|
D||-9--------9---------------------------9---7-7-7-7-|
A||--------------------------------------------------|
E||--------------------------------------------------|
e||-----------------------------------------------------|
B||----7--------7-----7----7----7----7----7-------------|
G||----7-9-7----7-9-7-9b11-9b11-9b11-9b11-9b11r9-7-9-7--|
D||-9--------9------------------------------------------|
A||-----------------------------------------------------|
E||-----------------------------------------------------|

In Too Deep chords – Sum 41 V3

 : Fabio BlenderBR
- Give your rating and help others users to find the best versions of the songs -
Intro:  E A   (2x)
Intro Riff:
e|-----------------------------------|
B|-----------------------------------|
G|---------9---13--------------------|
D|--99-9-9---9----9--99-9-9-7-6-7-9--|
A|-----------------------------------|
E|-----------------------------------|
e|-----------------------------------|
B|-----------------------------------|
G|---------9---13--------------------|
D|--99-9-9---9----9--99-9-9-7-6------|
A|------------------------------9-7--|
E|-----------------------------------|
Verse:
E 
The faster we're falling
A 
We're stopping and stalling
E A 
We're running in circles again
E 
Just as things were looking up
A 
You said it wasn't good enough
E 
But still we're trying
A 
one more time
Pre Chorus:
E 
Maybe we're just
A 
trying too hard
E 
When really it's closer
A 
than it is too far
Chorus:
E A 
Cause I'm in too deep
E A 
And I'm trying to keep
E A 
Up above in my head
E A 
Instead of going under
E A 
Cause I'm in too deep
E A 
And I'm trying to keep
E A 
Up above in my head
E D 
Instead of going under
A 
Instead of going under
Intro:
Em A G#m A    (3x)
Em A G#m F#m G#m  
Verse 2:
Em 
Seems like each time
G#m A 
I'm with you I lose my mind
G#m Em 
Because I'm bending
G#m A G#m A G#m 
over backwards to relate
Em 
It's one thing to complain
G#m 
But when you're
A 
driving me insane
G#m Em 
Well then I think it's
G#m A G#m A 
time we took a break
Pre Chorus:
E 
Maybe we're just
A 
trying too hard
E 
When really it's closer
A 
than it is too far
Chorus:
E A 
Cause I'm in too deep
E A 
And I'm trying to keep
E A 
Up above in my head
E A 
Instead of going under
E A 
Cause I'm in too deep
E A 
And I'm trying to keep
E A 
Up above in my head
E D 
Instead of going under
A 
Instead of going under
E D 
Instead of going under
A 
Instead of going under
Bridge:
E    (4x)
Solo:
Em F#m D A     (4x)
Em F#m A B 
I can't sit back and wonder why
Em F#m A B 
It took so long for this to die
Em F#m A B 
And I hate it when you fake it
Em F#m 
You can't hide it you
A B 
might as well embrace it
Em F#m A B 
So believe me it's not easy
Em F#m 
It seems that
<span

Deep Is The Breath chords – Kasper Bjorke

      _________________________________
/ Kasper Bjørke                   /
/ Deep is the Breath              /
/ feat. Jacob Bellens & Emma Acs  /
/ Fool                            /
/_________________________________/
Intro:         |  F#m      |  F#m C   |  B        |  B G    |
|  F#m      |  F#m C   |  B        |  B C#   |
Verse  A :       |  F#m      |  F#m C   |  B        |  B G    |
|  F#m      |  F#m C   |  B G    |  F#m      |  F#m C#  |
Verse  B :       |  F#m      |  F#m C   |  B        |  B G    |
|  F#m      |  F#m C   |  B G    |  F#m      |  F#m      |
Chorus:        |  D        |  C#m      |  B        |  B        |
|  G        |  F#m E   |  C#       |  C#       |
|  D        |  C#m      |  B        |  B        |
|  F#m      |  G#m      |  C#       |  C#       |
Interlude:     |  F#m      |  F#m      |  F#m      |  F#m C#  |
Verse  A 
Verse  B 
Chorus
Chorus
Chorus (instrumental), then end on F#m
LYRICS
**********
Come on over here, let me have a try,
so I can have you near just another night
Whisper in your ear, show that there is time,
before you disappear, for us to say goodnight
Waking from a sleep, every word I say,
just to make you see that every single day
I will want to be, if it is okay,
stuck inside a dream while you are awake
'Cause you know I already miss you
I already miss you much more than you know
The days turn to nights and I find myself singing a song
When I am not with you,
my heart stops and I end up losing control
Deep is the breath, and with you is where I do belong
If you're on your own, if you're on the path
and you're all alone, call me for a kiss
If you don't really know, no one ever will
It's just the way it goes, and just the way it is
Still I want you to consider again
with all that we've been through, I have been your friend
Don't you know that you don't have to pretend
in doing what you do, I'm yours until the end
'Cause you know I already miss you
I already miss you much more than you know
I hope you remember the days we have had until now
We won't be together
until the day that you decide to come home
Still I am sure that our stars will align anyhow
'Cause you know I already miss you
I already miss you much more than you know
The days turn to nights and I find myself singing a song
When I am not with you,
my heart stops And I end up losing control
Deep is the breath, and with you is where I do belong
+--------------------------------------------------------------------------+
Jon Sebastian Frederiksen - 10th /February /14
Just mail me at Maitinin with questions, comments and corrections!

Deep Water Horizon chords – Epica

 Em Bm 
We have to wait
G D 
For a dying day, full of black decay
Em Bm 
We'll find a way
G D Am 
To become aware, breathing tainted air
G 
We change the lanes in every second of our lives
Em Bm 
Lost in our minds
G D 
We'll taste the water's brine, all for the silver shine 
Em Bm 
Can't stay the same
G D Am                         
Should end this bloody game, bare in the venom rain
G B7 
To fuel the greed to feed the hungered has its price
Bbm Ebm 
There's the feeling once again
F Gb 
The day where black and white began
Bbm Ebm Ab 
Await the ending of our everlasting violence
Bbm Ebm 
We've all been healing from the pain
F Gb 
From all the misery and constraint
We're inhaling fumes again 
Ab 
So don't deny it
Em Bm 
Lies will unwind
G D 
The verity you'll find, upon the moor resigned 
Em Bm 
Primary gain
G D                        
Comes with a thousand slain, all for the greater vain
G B7 
Without the horror causing hazard we'll survive 
Bbm Ebm 
There's the feeling once again
F Gb 
The day where black and white began
Bbm Ebm Ab 
Await the ending of our everlasting violence
Bbm Ebm 
We've all been healing from the pain
F Gb 
From all the misery and constraint
We're inhaling fumes again 
Ab 
So don't deny it
//Please submit your corrections and ideas ;)

Deep chords – Bo Burnham V2

 Verse Progression:  G# ,  B ,  Em7 ,  C 
(prog:  C ,  G# ,  C ,  Em7 ,  B )  
This songs about how deep I am    
I'm really fucking deep bro
So deep that it's called.. Hashtag Deep
Verse Progression:  G# ,  B ,  Em7 ,  C 
Have you ever stopped to watch a bluebird drop from a tree, and take to the air?
Me Neither
Have you ever stopped to finish out a rhyme but the right words just weren't there?
Meat Cleaver
Verse Progression:  G# ,  B ,  Em7 ,  C 
The people in my life are like grains of sand
Cause they stick together
Yeah.. Often near my butt hole
C ,  G# ,  C ,  Em7 ,  C 
If life is an ocean than I am a deep and handsome fish
G# B 
A fish that's drowning
C ,  G# ,  C ,  Em7 ,  C 
If the artistic process is a birth canal then I am a freshly jellied kid
G# B 
Come witness my crowning
C 
Cause thoughts of mine
B#  ( D )
Must be a sign that I'm
G# 
Hashtag Deep
[spoken] If jesus can walk on water, can he swim on land?]
Verse Progression:  G# ,  B ,  Em7 ,  C 
Have you ever accidentally peed on the side of the toilet instead of your girlfriends face? 
Me neither.. Me neither!
Verse Progression:  G# ,  B ,  Em7 ,  C 
The people in my life are like blades of grass
Cause they're all so grounded but at least grass stays away from my butthole!
C ,  G# ,  C ,  Em7 ,  C 
Art is a harlot And I am her sassy urban friend
G# B# 
Mmm, bitch it's like your being so selfish
C ,  G# ,  C ,  Em7 ,  C 
If momma is right and the world is my oyster then I 
G# B 
must have an allergy to shellfish
C 
You don't know
B  ( D )
How could you know
(play around with these chords, not sure if this order)
C ,  G# ,  C ,  Em7 
If life makes you wish you were dead
C G# Em7 B G# 
Just put on a good movie and then promptly put a bullet in your head
C ,  G# ,  C ,  Em7 
Spend forever asleep, cause life pales in comparison to living the dream
G# B Em7 C 
Hashtag Deep

Deep chords – Bo Burnham

 Progression:  G# ,  B ,  Em7 ,  C 
(spoken) This songs about how deep I am
I'm really fucking deep bro
So deep that it's called.. Hashtag Deep
G# B Em7 C 
Have you ever stopped to watch a bluebird drop from a tree, and take to the air?
G#  (repeat for next line)
Me Neither
Have you ever stopped to finish out a rhyme but the right words just weren't there?
Meat Cleaver
G# B Em7 C 
The people in my life are like grains of sand
G# B 
Cause they stick together
Em7 
Yeah.. Often near my butt hole
C G# Em7 G# C 
If life is an ocean than I am a deep and handsome fish
G# B 
A fish that's drowning  
C G#              
If the artistic process is a birth canal
Em7 G# C 
Than I am a freshly jellied kid
G# B 
Come witness my crowning
C 
Cause thoughts of mine
B 
Must be a sign that I'm
G# 
Hashtag Deep
Same progression as top:
(spoken: If jesus can walk on water, can he swim on land?)
Have you ever accidentally peed on the side of the toilet instead of your 
girlfriends face? Me neither.. Me neither!
G# B Em7 C 
The people in my life are like blades of grass
G# Em7 B 
Cause they're all so grounded but at least grass stays away from my butthole!
C G# Em7 G# C 
Art is a harlot and i am her sassy urban friend
G# B 
Mmm, bitch it's like your being so selfish
C G# Em7 G# C G# B 
If momma is right and the world is my oyster then i must have an allergy to shellfish
C B 
You don't know. How could you know
G# B Em7 C 
If life makes you wish you were dead
Just put on a good movie and then promptly put a bullet in your head
Spend forever asleep, cause life pales in comparison to living the dream
Hashtag Deep

Francisco chords – Swim Deep

                                           Francisco
by Swim Deep
intro
e|-----12----12----12----12----12----12--|
B|--13----13----13----13----13----13-----|
G|---------------------------------------|
D|---------------------------------------|
A|---------------------------------------|
E|---------------------------------------|
C F C   
One, two, three, four
C F C C F C 
It's time to wake up, isn't it?
C F C 
'Cause yeah I've been away, just visiting
C F 
I've had my hopes up, baby
C 
When I was under
C F 
I got my hopes up lately
C 
When I was under
G 
Yeah
F 
There's nothing left
G 
But time in the world
F 
A second guess
G 
Looks fine to me girl
F 
I just wanna know
C F 
Was it a day?
C 
Or was it forever?
C F 
'Cause I've found the place
C 
The sun shines forever
C F C 
Sweet dreams until you wake up
C F C 
Eyes closed with visions you make up
C F 
Oh I had my hopes up, baby
C 
When I was under
C F 
I've had my hopes up, Daisy
C 
When I was under
G 
Yeah
F 
There's nothing left
G 
But time in the world
F 
A second guess
G 
Looks fine to me girl
F 
I just wanna know
C F 
Was it a day?
C 
Or was it forever?
C F 
'Cause I've found the place
C 
The sun shines forever
C F 
Was it a day?
C 
Or was it forever?
C F 
'Cause I've found the place
C C 
The sun shines forever
F C 
Shines forever
C F 
I've found the place
C 
The sun shines forever 

Candour intro Tabs by Neck Deep

 Standard tuning (I did this on an acoustic)
This is all by ear so if its off feel free to correct.
I was just attempting to help others who may have a better ear figure it out.
e--------------------------------------------------------------------|
B--------------------------------------------------------------------|
G--------------------------------------------------------------------|
D-------5-------|--------5-------|--------2-------|-------0-2-0-2----|
A---3-----3---3-|----3-----3---3-|----3-----3---3-|---3--------------|
E-5---5-----5---|--5---5-----5---|--1---1-----1---|-1---1------------|
e---------------------------------------------------------------------|
B---------------------------------------------------------------------|
G---------------------------------------------------------------------|
D-------5-------|--------5-------|--------2-------|-------2-----------|
A---3-----3---3-|----3-----3---3-|----3-----3---3-|---3-----3---3-----|
E-5---5-----5---|--5---5-----5---|--1---1-----1---|-1---1-----1-------|

Through The Deep Dark Wood chords – The Veils

 Intro
Bm A F#m G Bm A F#m G 
Well she said "Baby, c'mon and take my hand,
Bm A F#m G 
You know that lately you've been my only man,
Bm A F#m G 
And all I've wanted is for you to see,
Bm A F#m G    
C'mon now my love and take a walk with me
Em 
Through the deep, dark wood
Through the deep, dark
Through the deep, dark wood"
Bm A F#m G Bm 
Love, lay your hand upon my chest so I can't go back,
A F#m G Bm 
No this love ain't like the rest no I can't go back,
A F#m G 
Now there's no more to love than this no I can't go 
Bm A 
Back____
F#m G 
Back____ 
Bm A F#m G 
Back___________ 
Interlude
Bm A F#m G Bm A F#m G 
Well she said: "Baby I feel you coming on__, 
Bm A F#m G 
We've spent a lifetime getting our love all wrong"
Bm A F#m G 
She said: "There's no need, c'mon it won't take long, 
Em 
The dreams are strange but good, 
Through the deep, dark 
Through the deep, dark wood"
Bm A F#m G Bm 
Love, lay your hand upon my chest so I can't go back,
A F#m G Bm 
No this love ain't like the rest no I can't go back,
A F#m G 
Now there's no more to love than this no I can't go 
Bm A 
Back____
F#m G 
Back____ 
Bm A F#m G 
Back___________ 
Interlude
Bm A F#m G  x2
Outro
No I can't go
Bm A 
Back____
F#m G 
Back____ 
Bm A F#m G 
Back___________ 
End on  Bm

How Deep It Goes chords – Heart

 How Deep It Goes - Heart
Capo up 5 frets
A G 
In the quiet afternoon you left and went down into town
D A 
And I just watched the empty road behind you
A 
Where the fog lies kissing the mountainside
G 
You wanna lie sleeping, deep inside
D A 
Believing that the hungry world won't find you
Am 
Well, that's just fine, that's just fine
D Am 
You've got to believe and I don't know, I don't know
D 
What I believe anymore
Am 
Or whether to leave, or whether to stay
E Dm7 
Or what I can say to make you know
Am Dm7 A E A 
How deep it goes
A 
Somebody turned on the dirty blues
G 
Well I know, you don't like the blues
D A 
'Cause the words are always the same and they kind of remind you
Somebody turned the blues on me
G 
Well I don't like the blues 'cause I can't see
D A 
Through the tears that come and make it hard to find you
Am 
Well come on down, come on down
D 
You've got to come lay down here 
Am D 
and say those things, those warm things, right here in my ear
Am 
The times that we had that water like wine
E Dm7 
So clean and so fine to make me know
Am Dm7 A E A 
How deep it goes
Am 
Well, that's just fine, that's just fine
D Am 
You've got to believe and I don't know, I don't know
D Am 
If I could leave anymore, even though there's a scar
E 
Still fresh from the war, don't think about it no more
Dm7 
Let a new love flow
Am Dm7 A E A 
How deep it goes

A Deep Slow Panic intro Tabs by Afi

 AFI - A Deep Slow Panic
Burials
Jade usually has tuned his guitar Half step down. But just for the intro I used 
standart tunning...
I love this song! 
(Use a Digital Delay and a Distortion)
Standart Tunning:
e¦---------------------------------------¦
B¦---------------------------------------¦
G¦--------------------------12-13-12-----¦
D¦-10--10-12--10--12-13-13-----------13--¦
A¦---------------------------------------¦
E¦---------------------------------------¦
e¦---------------------------------------¦-13\slide down -------------------¦
B¦---------------------------------------¦----------------------------------¦
G¦--------------------------12-13-12-----¦----------------------------------¦
D¦-10--10-12--10--12-13-13-----------15r-¦----------------------------------¦
A¦---------------------------------------¦----------------------------------¦
E¦---------------------------------------¦----------------------------------¦
e¦---------------------------------------¦
B¦---------------------------------------¦
G¦-12-13-12------------------------------¦
D¦----------13-13--12r-------------------¦
A¦---------------------------------------¦
E¦---------------------------------------¦
That's it. That's what I know. Have fun! 
Feel free to correct

Way Down Deep chords Vn Gosdin

 C F C 
This highway of heartache is rocky and rough
G7 C 
And I learned a long time ago
F C 
You can't build a fire from the ashes of love 
G7 C 
And roses don't bloom in the snow
F 
Down deep inside my soul
C G7 
Where once it was cold and dark 
C F C 
I can feel your love take a hold
G7 C 
Way down deep in my soul
F C 
You were my light in the darkest of days
G7 C 
Though storm clouds were raging within
F C 
Slowly but surely the clouds rolled away
G7 C 
And the sun started shining again
Repeat #2

Growing Pains Tabs by Neck Deep

 Growing Pains - Neck Deep
Intro - play as many times as needed
D|--------------12-------12----9h10p9-7-5-------|
A|--10-----9-10-----9-10------------------------|
F|--9-------------------------------------------|  
C|--7-------------------------------------------|
G|----------------------------------------------|
C|----------------------------------------------|
Verse 1 - figure out strumming
D|------------------------------------------------------------------------10-9-------|
A|---------------------------9h10-10-10-109h10-12-10----9h10-10-10-109h10-------(x2)-|
F|----------7-----------7------------------------------------------------------------|  
C|--7---4---7---7---4---7------------------------------------------------------------|
G|--7---4---5---7---4---5------------------------------------------------------------|
C|--7---4-------7---4----------------------------------------------------------------|
Pre chorus
D|-9------9--7----9-----9h10p9-7-5----9-----9--7----9999-9h10p97~--7h9p75~-----|
A|--10-----10-10---10------------------10----10-10-----------------------------|
F|----9~-------------9~------------------9~------------------------------------|  
C|-----------------------------------------------------------------------------|
G|-----------------------------------------------------------------------------|
C|-----------------------------------------------------------------------------|
Chorus
D|--------------------------------------|
A|--------------------------------------|
F|------9---------7---------------------|  
C|-7----9----4----7------------7-6-4-2~-|
G|-7----7----4----5------------5-4-2-0~-|
C|-7---------4--------------------------|
Lead chorus
D|-----/12----------------/12---------------/12---------12-0-10-0-9-0-7-0--9h10p9-7-5-|
A|-/10------12-10~----/10------12-9~----/10------12-10~-------------------------------|
F|------------------------------------------------------------------------------------|  
C|------------------------------------------------------------------------------------|
G|------------------------------------------------------------------------------------|
C|------------------------------------------------------------------------------------| 
D|-----/12----------------/12--14-----------------------------------------------------|
A|-/10------12-10~----/10---------1414----9h10p9-7h9p7--------------------------------|
F|-----------------------------------------------------9h11p9-------------(x2)----9*--|  
C|------------------------------------------------------------11-9h11p9-7-------------|
G|------------------------------------------------------------------------------------|
C|------------------------------------------------------------------------------------|
^not 100% sure
Verse 2 - figure out strumming
D|----------------------------------|
A|----------------------------------|
F|----------------7-----------7-----|  
C|--7~----7---4---7---7---4---7-----|
G|--7~----7---4---5---7---4---5-----|
C|--7~----7---4-------7---4---------|
D|-9h10p9-779----9h10p9-10h12p10-10h1212-1212121299121212127h9p75----|
A|-------------------------------------------------------------------|
F|-------------------------------------------------------------------|  x2
C|-------------------------------------------------------------------|
G|-------------------------------------------------------------------|
C|-------------------------------------------------------------------|
Outro
D|--------------------------0-0-0-0000-0-0-0000-0-00-0-0-0-0000-0-0-0000------|
A|--------------------------121212999101010999101099-12121299910101099910-----|
F|----------------------------------------------------------------------------|  
C|-7777777777777777777777-----------------------------------------------------|
G|-7777777777777777777777---------------------------------------------------

Knee Deep In My Heart chords – Shane Filan

 A A 
Life is running past me
E F#m 
Days and hours too
Liking at no colour
A E 
Just different shades of blue
A 
I heard about this love thing
D F#m 
But I still need to prove
D 
'Cos I believed in nothing
A E 
'Til I believed in you
And I say
F#m E Bm 
Oh, oh-oh, oh-oh
You left your fingerprints
F#m E B Bm 
All over my soul
D A 
And I caught you out red handed
E 
Knee deep in my heart
D A 
When I was upside down
F#m E 
Spinning round and round and round in the dark
D A E 
Act so sweet but you're guilty as charged
Bm 
I caught you out red handed
D 
Knee deep in my heart
A E D A E A 
I never saw it coming
F#m E 
You took me by surprise
D A 
'Cos you ain't done the cover
E 
Without an alibi
A 
You done the perfect crime girl
D ♭m              F#m 
Now I wanna do the time
D 
'Cos I got no defense but hell
A E 
I'm gonna walk the line
And I say
F#m E Bm 
Oh, oh-oh, oh-oh
You left your fingerprints
F#m E B Bm 
All over my soul
D A 
And I caught you out red handed
E 
Knee deep in my heart
D A 
When I was upside down
F#m E 
Spinning round and round and round in the dark
D A E 
Act so sweet but you're guilty as charged
Bm 
I caught you out red handed
D 
Knee deep in my heart
D A E 
I can taste the sweetest freedom
D A E A 
Not by what I believe in
And I say
F#m E Bm 
Oh, oh-oh, oh-oh
You left your fingerprints
F#m E B  
All over my soul
D ♭
My soul
D A 
And I caught you out red handed
E 
Knee deep in my heart
D A 
When I was upside down
F#m E 
Spinning round and round and round 
D A 
And I caught you out red handed
E 
Knee deep in my heart
D A 
When I was upside down
F#m E 
Spinning round and round and round in the dark
D A E 
Act so sweet but you're guilty as charged
Bm 
I caught you out red handed
D 
Knee deep in my heart

Burn solo Tabs by Deep Purple

 Deep Purple - Burn, Guitar Solo
e|-----------------------------------------------------------------|
B|-----------------------------------------------------------------|
G|--3b(4)---------3------------------------------------------------|
D|--------5----------5--3--5------5--3h5p3h5p3---3s-2-0-2h3p2h3-4-5|
A|---------------------------------------------5-------------------|
E|-----------------------------------------------------------------|
e|---------------------------------------------------------------|
B|---------------------------------------------------------------|
G|-3-----5b(7)---------------5--3--5h6p5p3-----3h5p3---3h5p3-----|
D|---5~~ -----------------------------------5--------5-----------|
A|---------------------------------------------------------------|
E|---------------------------------------------------------------|
e|---------------------------------------------3---------3--------|
B|--------------------------------------------3---6b(8)-3--3------|
G|----3h5p3---3h5p3---3h5p3---3h5p3-----5b(6)---------------5b(7)-|
D|--5--------5-------5-------5------------------------------------|
A|----------------------------------------------------------------|
E|----------------------------------------------------------------|
e|-3--------------------------------------------------------------|
B|----------------------------------------------------------------|
G|----6p5p3---3h5p3---3h5p3--3~~~~--------------------------------|
D|----------5-------5---------------------------------------------|
A|----------------------------------------------------------------|
E|----------------------------------------------------------------|
e|---------------------------------------------------------------|
B|---6h8p6---6h8p6---6h8p6---6h8p6---6h8p6---6h8p6---------------|
G|---------7-------7-------7-------7-------7-------7-------------|
D|---------------------------------------------------------------|
A|---------------------------------------------------------------|
E|---------------------------------------------------------------|
e|------6--------------------------------------------------------|
B|--6h7---8---6h7h8-6~~~~~---------------------------------------|
G|---------------------------------------------------------------|
D|---------------------------------------------------------------|
A|---------------------------------------------------------------|
E|---------------------------------------------------------------|
e|---------------------------------------------------------------|
B|---------------------------------------------------------------|
G|---12-15-0-0-10-12-0-0-12-15-0-0-10-12-0-0-12-15-0-0-10-12-0-0-|
D|---------------------------------------------------------------|
A|---------------------------------------------------------------|
E|---------------------------------------------------------------|
e|---------------------------------------------------------------|
B|---------------------------------------------------------------|
G|--12-15-0-0-10-12-0-0-12-15-0-0-10-12-0-0-12-15-0-0-10-12-0-0--|
D|---------------------------------------------------------------|
A|---------------------------------------------------------------|
E|---------------------------------------------------------------|
e|---------------------------------------------------------------|
B|---------------------------------------------------------------|
G|--12-15-0-0-10-12-0-0-8-10-0-0-10-12-0-0-12-15-0-0-10-12-0-0---|
D|---------------------------------------------------------------|
A|---------------------------------------------------------------|
E|---------------------------------------------------------------|
e|------------------------------------------------------------------|
B|------------------------------------------------------------------|
G|--8-10-8-0-0-7-8-7-0-0-5-7-5-0-0-3--0-5b(7-(7)-(7)-(7)--5r--------|
D|----------------------------