Tag: dog

Else Tabs – Dog & Panther

 -------------------------------------------------------------------------------
                             ELSE - Dog & Panther
-------------------------------------------------------------------------------

C: 032010
F: --3211
Fmaj7: 003210
Em: 022000
G: 320003

      C
e|---------------------------------------------------
B|-----------1-----------1------------1-----------1--
G|-----0-----------0------------0-----------0--------
D|--------2-----------2------------2-----------2-----
A|--3-----------3------------3-----------3-----------
E|---------------------------------------------------
      F                        Fmaj7
e|-----------1-----------1------------0-----------0--
B|-----1-----------1------------1-----------1--------
G|--------2-----------2------------2-----------2-----
D|--3-----------3------------3-----------3-----------
A|---------------------------------------------------
E|---------------------------------------------------
      Em                       G
e|------------------------------------3-----------3--
B|-----------0-----------0---------------------------
G|-----0-----------0---------------------------------
D|--------2-----------2---------0-----------0--------
A|--2-----------2------------------2-----------2-----
E|---------------------------3-----------3-----------
Strum C on the last word

One is best
One is best
Two is so much sweeter
April's cold water falling
The dotted yellow line
Guides me back to bed

If this is life
This is life
Always moving on
No time for myself
Here is now
Who picks up my pieces

If this is it
This is it
All was well
I won’t get another chance
I can still feel her hands
I thought I found her

But she won’t
But she won’t
Think about the future
Or get a steady job
She's so much like my mom
Go now

Hold someone else

************************************

Dog Log Tabs – Dave Brockie Experience

 My first post of 2016. Requested by jonnehboi.
According to Dave, this song dates back to the days of Death Piggy. And it shows.



All strings tuned half-step down.

INTRO
|-------------------------------------------------------------|
|-------------------------------------------------------------|
|-------------------------------------------------------------|
|-------0-2-0----0-0-0-2-0~--2--2-3-5-3-2----3-2-0---0-2-0----|
|--3--3-------3------------------------------------3-------3--|
|-------------------------------------------------------------| x4


VERSE
|--------------------------------------------------------|
|-------1-------------3------------5------------6--------|
|---------0---0---------2---2--------4---4--------5---5--|
|-----------2----0~-0-----0---2~-2-----2---3~-3-----3----|
|--3~-3--------------------------------------------------|
|--------------------------------------------------------| x3


|--------------------------------------------------------|
|-------1-------------3------------5------------6--------|
|---------0---0---------2---2--------4---4--------5---5--|
|-----------2----0~-0-----0---2~-2-----2---3~-3-----3----|
|--3~-3--------------------------------------------------|
|--------------------------------------------------------|
|
|Overlay
|----------------------------------------------------------|
|----------------------------------------------------------|
|----------------------------------------------------------|
|-----------------------------2~~----------3~~-------------|
|-----------------------------2~~----------3~~-\\Pick\\----|
|-----------------------------0~~----------1~~--\\Slide\\--|


CHORUS ("Fell off a waterfall")
|----------------------------------------|
|----------------------------------------|
|--9-x-9-x-9-x-12-x-10-x-10-x-10-x-10-x--|
|--9-x-9-x-9-x-12-x-10-x-10-x-10-x-10-x--|
|--7-x-7-x-7-x-10-x--8-x--8-x--8-x--8-x--|
|----------------------------------------|

|-----------------------|
|-----------------------|
|--9-x-9-x-9-x-12-x-10--|
|--9-x-9-x-9-x-12-x-10--|
|--7-x-7-x-7-x-10-x--8--|
|-----------------------|



Repeat             INTRO (Hold the final note)



VERSE 2 (First half has no guitar)
|------------------------|
|------------------------|
|--5~~----5\4~~---4/5~~--|
|------------------------|
|--3~~----3\2~~---2/3~~--|
|------------------------| x2


OUTRO PART 1
|------------------------------------------------|
|-------1~~---------1~~---------1~~---------1~~--|
|------------------------------------------------|
|--------------0~~-------0-2~~-------2-3~~-------|
|--3~~-------3-----------------------------------|
|------------------------------------------------| x2

|------------------------------------------------|
|-------1~~---------1~~---------1~~---------1~~--|
|------------------------------------------------|
|--------------0~~-------0-2~~-------2-3~~-------|
|--3~~-------3-----------------------------------|
|------------------------------------------------| x2
|
|------------------------------------------------------|
|-------1-1-1p0-----1-1-1p0-----1-1-1p0-----1-1-1p0----|
|---------------0-----------0-----------0-----------0--|
|------------------------------------------------------|
|------------------------------------------------------|
|------------------------------------------------------| x2

OUTRO PART 2
|--------------------------------------------------------|
|-------1~-1-1-------1~-1-1-------1~-1-1-------1~-1-1-1--|
|-------0~-0-0-------0~-0-0-------0~-0-0-------0~-0-0-0--|
|-------2~-2-2--0~-0-0~-0-0--2~-2-2~-2-2--3~-3-3~-3-3-3--|
|--3~-3-3~-3-3-------------------------------------------|
|--------------------------------------------------------| x3

|--------------------------------------------------------|
|-------1~-1-1-------1~-1-1-------1~-1-1-------1~-1-1-1--|
|-------0~-0-0-------0~-0-0-------0~-0-0-------0~-0-0-0--|
|-------2~-2-2--0~-0-0~-0-0--2~-2-2~-2-2--3~-3-3~-3-3-3--|
|--3~-3-3~-3-3-----------------------------

Hound Dog Man chords – Roy Orbison Vsion 2

 Hound Dog Man 
Roy Orbison
1979 song about Elvis

Intro  A D A E F#m E A E A D A 
Hey, hound dog man
 E F#m E A E 
Where you been now, where you been?
 A D A    
I wish that you were back
 E F#m E A 
you was too good to ever end
           D A 
Once in a while someone like you
      E F#m E D 
Will give everything for what they want to do

 A D A 
Hey, hound dog man
 E F#m E A 
My old friend, play it again

 A D A 
You gave the world a whole lot of joy
     E F#m E A 
Now that ain't bad for a country boy
 E A D A 
I just knew you could not lose
     E F#m E A 
The way you sang rock and roll and blues
          D A 
I still think about these things
 E F#m E D 
And the memory that it brings

 A D A 
Hey, hound dog man
 E F#m E A 
My old friend, play it again
      D A 
Hey, hound dog man,
 E F#m E A 
My old friend, play it again

riff   D A E F#m E A D A E F#m E A E A D A 
Sometimes I think about James Dean
 E F#m E A 
Sammy Cooke and my teenage queen
 A       
Doo ron, de ron, de ron
         F#m E D 
Marilyn Monroe and hot rod fun
 A D A 
I still think about these things
 E F#m E D 
And the memory that it brings

 A D A 
Hey, hound dog man
 E F#m E A E 
My old friend, play it again
 A D A 
Hey, hound dog man
 E F#m E A           
My old friend, why did it end?
      D A 
Hey, hound dog man
 E F#m E A 
My old friend, why did it end?

 D A E F#m E A D  AE  F#m E  fade

flyinglibra51
God Bless Glen Travis Campbell

Turning The Century intro Tabs – Dr. Dog

 -------------------------------------------------------------------------------
                             Turning the Century - Dr. Dog
-------------------------------------------------------------------------------
here's the intro to Dr. Dogs Turning the Century, learned by ear and watching 
live videos. hopefully someone will tab out the rest of the song. enjoy! 

Tuning:DADF#ad

d |-------------------------------------|
a |-------------------------------------|
F#|---------------------0---------------|
D |---------0---------------0-----------|  x8
A |-------------------------------------|
D |---0-----------0---------------------|
      +     +     +     +   +

******************************play this twice**************************
d |---12----------11/12---3---4-----------4-------5---6---7---5---4---
a |-----------0-----------------------0-------0-----------------------
F#|-------0-----------------------0-------------------0---0-----------
D |---0-----------0-------0---0-------------------0-----------0---0---
A |-------------------------------------------------------------------
D |-------------------------------------------------------------------

  -----------4----------|
  -------0-------0------|
  ---0------------------|
  ----------------------|  
  ----------------------|
  ----------------------|
***********************************************************************

d |------------------------------------------------------------|
a |---4-----------4-------2-----------2-------7---5---4---2----|
F#|---3---3-----------3---3---3-----------3---5---3---2---0----|
D |-----------2-------------------2----------------------------|
A |---0-------------------0------------------------------------|
D |------------------------------------------------------------|

************************play this twice**************************
d |-------------------------------------------------------|
a |-------------------------------------------------------|
F#|---------------------0------------------------0--------|
D |---------0---------------0---------0--------------0----|  
A |-------------------------------------------------------|
D |---0-----------0--------------0---------0--------------|

                  b                   b
d |----------------3---0---------------3---0------|
a |----------------3---0---------------3---0------|
F#|--------3-------------------1------------------|
D |-----------------------------------------------|
A |---1/3------3------------2------2--------------|
D |-----------------------------------------------|
*****************************************************************

d |-------------------------------------|
a |-------------------------------------|
F#|---------------------0---------------|
D |---------0---------------0-----------|  x2
A |-------------------------------------|
D |---0-----------0---------------------|


************************************

| /   slide up
| \   slide down
| h   hammer-on
| p   pull-off
| ~   vibrato
| +   harmonic
| x   Mute note
| b   Bend
| pb  Pre-bend
| br  Bend release
| pbr Pre-bend release
| brb Bend release bend

************************************

The Dog chords – Titus Andronicus V2

 Here's how I do it.

==================================

 E E E E E  ...
I’ve been waiting for ...


 B C#m 
trying to               help you outtttt

 A B E 
Seems           to be the punchline             nowwww


 A A E E E E E  ...
I’ve been waiting for ...


 B C#m 
somebody by            nowwwwww

 A B E 
If I hadn't     disappeared                     myself


 C#m A B E 
You   and the dog and the kids     and me

 C#m A B E 
You   and the dog   and the kids    and me

 C#m A B C#m 
You   and the dog and the kids and meeeeeeee

 B B B B B B B B A 

(repeat)

Putting The Dog To Sleep chords – The Antlers V2

 C ,  C/B ,  Am ,  Am/G ,  F ,  C ,  G  is the progression for almost the whole time

 C C/B Am 
Prove to me I’m not gonna die alone.
          Am/G F 
Put your arm around my collarbone,
               C G 
And open the door. 

        C C/B Am 
Don’t lie to me if you’re putting the dog to sleep,
      Am/G F 
That pet you just couldn’t keep,
                C G 
And couldn’t afford. 

        C C/B Am 
Well prove to me I’m not gonna die alone.
    Am/G F 
Unstitch that shit I’ve sewn,
                  C G 
To close up the hole that tore through my skin. 
  
          C C/B Am 
Well my trust in you is a dog with a broken leg,
 Am/G F C G 
Tendons too torn to beg for you to let me back in. 

                    C C/B Am 
You said, “I can’t prove to you you’re not gonna die alone,
     Am/G F 
But trust me to take you home,
                   C G 
To clean up that blood all over your paws. 

                 C 
You can’t keep running out,
 C/B Am 
Kicking yourself off the bed,
 Am/G F 
Kicking yourself in the head,
                            C G 
Because you’re kicking me too.” 

           C 
Put your trust in me,
     C/B Am Am/G 
I’m not gonna die alone.
           C 
Put your trust in me,
     C/B Am Am/G C 
I’m not gonna die alone… I don’t think so...

My Dog And Me chords – John Hiatt

 Capo on first fret
verse 1:
     E A E 
She marked our trail up the backbone ridge.
 C#m B E 
How many times can one dog pee?
 E A E 
Keeps me high as an eagle, when I'm on the skids.
             C#m B E 
I guess she gotta come down eventually.

Chorus:
 E A E B E 
Buddy I could'a gone that extra mile.
        A E B A 
For an extra bark, or an extra smile.
       A B C#m 
Cause I never felt so free,
        B A E 
It was just my dog and me.


Verse 2:
          E A E 
Then she gives me that look, like she'd lay down her life.
    C#m B E 
No doubt she would in a minute, man.
       E A E 
She'd face the bullet, oh she'd face the knife.
         C#m B E 
Just to keep my butt from the fryin' pan.


Chorus:
 E A E B E 
Now she's runnin' up ahead to chase some deer.
       A E B C#m 
Comes back to tell me that the coast is cleared.
        A B C#m 
It's a different world I see,
           B A E 
when it's just my dog and me.

 E A E C#m 
There's a rabbit on the run.
 C#m B A E 
Man and beast and sky and sun.

Chorus:
 E A B C#m 
Who's talking to the birds in the trees?
          B A E 
Why it's just my dog and me.


Verse 3:
 E A E 
Now it looks like we been makin' tracks,
          C#m B E 
from the crack of dawn to the end of the day.
         E A E 
So it's nice and easy down the devil's back.
 C#m B E 
She wouldn't know any other way.

Chorus:
 E A E B E 
Now it's over that ridge for one last mile,
             A E B A 
then we're fast asleep by the fireside.
 A B C#m 
Dreamin' these dreams for free.
           B A E 
Yeah it's just my dog and me.

 A B C#m 
I never felt so free.
       B A E 
It is just my dog and me.

Am I Drinking Enough chords – Mad Dog Mcrea

 === Am I Drinking Enough? – Mad Dog McRea ===

 Leon Bamford - lbamford
Official Band Website: http://www.maddogmcrea.co.uk/

Intro: as verse
 Am G Am C D 


Verse 1:
 Am 
  I guess I know my place
           G 
Something like a disgrace
 Am 
I take what I'm offered
 C D 
Don't know how to say know
 Am 
  Seems like life is a race
         G 
Just to get off your face
 Am 
Set the room spinning
 C D 
Someone bring me a bowl


Verse 2:
 Am 
Some folks who scam
            G 
Some folks walk the line
 Am 
Friends from any quarter
 C D 
Can't sail a boat through heavy seas
 Am 
Desert island paradise
             G 
Get out the whiskey and the dice
 Am 
Set the room spinning
 C D 
Can't get down on my old knee 


Chorus:
 F 
Am I drinking enough
 D 
Am I smoking enough
 G E 
Am I killing myself slowly or fast enough
 F 
All the folk I see
 D 
Don't see the world like me
 G E 
I just don't understand for the life of me


Solo: as verse
 Am G Am C D 


Chorus:
Am I drinking enough
Am I smoking enough
Am I killing myself slowly or fast enough
All the folk I see
Don't see the world like me
I just don't understand for the life, stand for the life of me

Solo: as verse

Chorus: 

Solo: as chorus

Shred Or Die Kill Em With The Beat Tabs by Dog Blood

 It's played in Drop D, and (obviously) has a metal / any heavy distortion effect


For first part, it's

e|--------------------------------------|
B|--------------------------------------|
G|--------------------------------------|
D|-0-1-0-1--xxx0-1-0-1-1-0-1-1-1-|  x12-|
A|-0-1-0-1--xxx0-1-0-1-1-0-1-1-1--------|
D|-0-1-0-1--xxx0-1-0-1-1-0-1-1-1--------|

Repeat until the rise synth thing comes in, and then play this


e|-------------------------------------|
B|-------------------------------------|
G|-------------------------------------|
 D|-0-1-0-1-12--xxx0-1-0-1-1-0-1-1-1---|
A|-0-1-0-1--12--xxx0-1-0-1-1-0-1-1-1---|
D|-0-1-0-1--12--xxx0-1-0-1-1-0-1-1-1---|

until the breakdown, and then it goes like this

e|-------------------------|
B|-------------------------|
G|-------------------------|
D|-0-0-3-1-xxxx-0-3-1------|
A|-0-0-3-1-xxxx-0-3-1------|
D|-0-0-3-1-xxxx-0-3-1------|

and then after, it goes:

e|-------------------------|
B|-------------------------|
G|-------------------------|
D|-0-0-3-1-xxxx-0-3-1------|
A|-0-0-3-1-xxxx-0-3-1------| x2
D|-0-0-3-1-xxxx-0-3-1------|


e|----------------------------|
B|----------------------------|
G|----------------------------|
D|-0-0-3-1-xxxx-0-3-3-12-11---|
A|-0-0-3-1-xxxx-0-3-3-12-11---|
D|-0-0-3-1-xxxx-0-3-3-12-11---|

and that's basically it. Hope you all like. And I'm sorry about the formatting, as this 
is my first tab. Please leave comments on how it sounds, and if you'd like to make any 
changes! Thanks!

Here's their soundcloud (Dog blood is Skrillex and Boys Noize)

https://soundcloud.com/dogblood

Fuck A Dog chords – Blink 182 V2

 Hey guys. Pretty simple song. Play the G chord for half the bar, Am for a quarter, 
then D for the other quarter. It sounds perfect on the ukulele if picking. 
Just diddle around with it and you'll get it. Enjoy!

 G Am D G Am 
I    want to fuck a dog in the ass
      D G Am 
He   wants to fuck a dog in the ass
      D G Am   
I    wanna fuck a dog
 D 
That's right kids.

 G Am D G Am 
I    tried to fuck your mom in the ass
 D G Am 
Tried to fuck your dad in the ass
 D G Am D 
Could only find the dog....and his ass

 G Am D G Am     
We   wanna fuck a dog in the ass
    D G Am 
We wanna fuck a dog in the ass
    D G Am D 
We wanna fuck a dog

 G Am D G Am D      
I    tried to fuck a fucking pirate in the ass
  G Am D          
(Aarrh me and me first mate ya survy cur)
 G Am      
Tried to fuck a fucking pirate
 D 
But I've found the dog
 G Am D 
(Ah that was no pirate man that was thine own sister)
 G Am D 
It's a Mexican pirate

 G Am D G Am 
We   want to fuck a dog in the ass
    D G Am 
We want to fuck a dog in the ass
 D G Am D 
Wanna fuck a fucking dog

Seeing Eye Dog chords – Merle Haggard

 Seeing Eye Dog as performed by Merle Haggard 
by JStMarie


 E B 
Well I'm gonna get me a seeing eye dog to help me find my way 
 B A E 
I'm so much in love with you I can't even see the light of day
 E B 
My mind is cloudy like a winter storm before the rain come pourin' down
 A E 
I feel so good and I gotta get my feet on the ground on the ground


 A E 
Well I'm walkin' real tall with my head held high in a cloud
 B                                           (stay on  B )
I feel so good sometime I wanna holler out loud

 
      E B 
Well I'm gonna take me a comin' down pill every time you come around
 A E 
I feel so good and I gotta get my feet on the ground on the ground


 A E 
Well I'm walkin' real tall with my head held high in a cloud
 B 
I feel so good sometime I wanna holler out loud


      E B 
Well I'm gonna take me a comin' down pill every time you come around
 A E 
I feel so good and I gotta get my feet on the ground on the ground

Episode chords – Pavlovs Dog

                                           Artist - Pavlov's Dog
                                         ***********************
                                             Song - Episode 
                                            ****************
                                         Album - Pampered Menial
                                        *************************
                                           - Ayreon77
                                         **********************




INTRO - VIOLIN
******
 Bm 

---------------------------------------------
00:15
VERSE 1
********
Clean Electric Guitar Picking
Do this with verse 1 below
  Bm F#m 
[---------2-----------------2-------|---------2-----------------2-------]
[-----3-----3---3-------3-----3---3-|-----2-----2---2-------2-----2---2-]
[---4---4-----4-------4---4-----4---|---2---2-----2-------2---2-----2---]
[-4-----------------4---------------|-4-----------------4---------------]
[-----------------------------------|-----------------------------------]
[-----------------------------------|-----------------------------------]

  C#m F# 
[---------4-----------------4-------|---------2--------------------------]
[-----5-----5---5-------5-----5---5-|-----2-----2---3-------2--------2---]
[---6---6-----6-------6---6-----6---|---3---3-----3-------3---3----3---3-]
[-6-----------------6---------------|-4-----------------4--------4-------]
[-----------------------------------|------------------------------------]
[-----------------------------------|------------------------------------]X2

                                     guitar 2 2nd time around
                                    [---6---6---6---6--s--7---7--s---9----9-]
                                    [-7---7---7---7---7\9---9---9\11---11---]
                                    [---------------------------------------]
                                    [---------------------------------------]
                                    [---------------------------------------]
                                    [---------------------------------------]

VERSE 1
********
Acoustic Chords
 Bm F#m 
  I caught you walking on a rainy day
 C#m F# 
   And tossing petals to a pool
 Bm F#m 
  So keep your mind off passing hours
 C#m F# 
   Cause I'll be coming for you soon

---------------------------------------------
CHORUS
*******
 Bm F#m 
  Make believe you are a dancer
 C#m E 
   Though perhaps you make a better queen
 B F# 
 And before you leave you better count roses
     C#m E 
And mad, mad way you want to scream
                 D Em 
Oh If you want,   he gives you slippers
 G D 
Or shoot an arrow on past the sun
                            Em 
Or be the keeper always of my mind and heart
 G D 
  Or is it best you go unseen

---------------------------------------------

VIOLIN -  Em D Em D Em 
*******

---------------------------------------------
VERSE 2
********
 Bm F#m 
  Once you were star-struck and now twice you're not
 C#m F# 
   And things go badly as they do
 Bm F#m 
  And all the rainbows out of heaven
 C#m F# 
   I'll only steal them when I can

---------------------------------------------
CHORUS
*******
 Bm F#m 
  And me I'm just your hard soldier
 C#m E 
   An heirloom to a basket queen
 Bm <s

A Dog Wia Jeda Andre chords – Hans Soellner

 F 
A japanische flotte, draus`n auf`n meer
Treibt hundad-tausend delphine vor sich her,
 A# 
Sie treibn`s zum strand, bis zu uns heart mas´ schrei´n
 F 
Wenn`s eanan bäich aufschlitz`n und de kõpf obaschnei`n

 F 
Bis zur de knie stengan`s im bluat,
S`wasser brodelt und dampft,
S` ganze meer schäumt sich auf, in an todeskampf
 A# 
An luther hom`s daschoss`n, an reagen geht`s guat
 F C F 
Da busch bast`lt bomb`n und de wöid schaut zua

 A# F 
Oba für ea´m woa des a dog wie jeda on`dre,
 C F 
Do is er aufg´stond`n um sie`me in da friah
 A# 
Er hot sich g`woschn und kampelt
 F 
Und de zähn hot er sich putzt
 C F 
Und danoch is er in`d oarbeit spaziert

Auf`n buggl hom`ses draht, sun` trocknat`s aus
Se wock`ln und zapp`ln und er`ne aug`n reissn`s auf
Mit an hackl`n schlogn`s eanan bei lebendigem leib,
An panzer auseinander und se loch`n nur dabei

Gedärme auf da stross, kloane kind`a de spui`n
A tourist der sich unbedingt a kett`n kaff`a wui`
An luther hom`s daschoss`n, an hussein geht`s guat
Da kohl liagt weiter und de wöid heart zua

Oba für ea´m woa des a dog wie jeda on`dre
Do is er aufgstond`n um sie`me in da friah
Er hot sich g`woschn und kampelt
Und de zähn hot er sich putzt
Und danoch is er in`d oarbeit spaziert

Motorsäg`n klappern, holz splittert und kracht
Alle zwanz`g sekund`n oana und des dog und nocht
A gebiet so gross wie bayern, in 24 stund,
Gestan woas a wold, heit is wüste und sand

Sechshundat joahr hot er braucht,
Bis er so gross gwes`n is in a paar stund`n
Is` a kast`l, zwoa stühle und a tisch
An kennedy hom`s umbrocht, an papst geht`s guat
Da weizäcker vergift` uns und de wöid schaut zua

Oba für ea´m woa des a dog wie jeda on`dre,
Do is er aufg´stond`n um sie`me in da friah
Er hot sich g`woschn und kampelt
Und de zähn hot er sich putzt
Und danoch is er in`d oarbeit spaziert

Er kimmt um achte von der oarbeit hoam
Dreckat und miad, da chef hot ihn g`fickt,
Er greift noch sein erst`n bier - suacht de kinder
Und er find`s, im kinderzimmer - tot,
De gurg`l durchgschnitt`n, s`gonze zimmer war rot
Sei frau hängt im speicher, de tochter hängt´ dabei
Er steht fassungslos davo´r, er konn nit amol schrei´n

A kloan`s schüld`l umman hois,
A paar zeil`n hot`s noch g`schrieb`n
Sie hot so angst vor der zukunft und konn nimmer leb`n

Oba für mi woa des a dog wie jeda on`dre,
Do bin i aufgstond`n um sie`me in da friah
I hob mi g`woschn und kampelt
Und de zähn hob i ma putzt
Und dannoch bin i in d`oarbeit spaziert

Jo für uns olle woa`s a dog wie jeda ond`re
Do san` ma aufgstond`n um sie`me in da friah
Wir hob`n uns g´wosch`n und kampelt
Und de zähn hob` ma uns putzt
Und dannoch sein ma in d`oarbeit spaziert 

Dog Days Are Over chords – Florence And The Machine V6

 Capo on 7

I'm not sure if these chord names are correct, the capo made it kind of confusing. 
Note that there are two different A minors.


Chords used:
 G - 335553
 Am *- x57765
 Am - x02210
 Dm - xx0231
--------------------------
Intro:  G ,  G ,  G ,  G ,  G ,  Am *,  Am ,  Am G Am Dm G 
Happiness hit her like a train on a  t r a c k
                                            Am Dm G 
Coming towards her stuck still no turning  b a c k

She hid around corners and she hid under beds
                        Am *       Am           
She killed it with kisses and from it she fled
 G 
With every bubble she sank with her drink
                 Am *           Am        
And washed it away down the kitchen sink

      G 
The dog days are over

The dog days are done
        Am *
The horses are coming
     Am 
So you better run

     G 
Run fast for your mother, run fast for your father

Run for your children, for your sisters and brothers
                               Am *
Leave all your love and your longing behind
            Am 
You can't carry it with you if you want to survive

     G 
The dog days are over

The dog days are done
                  Am *
Can you hear the horses?
        Am                
'Cause here they come

(No Chords)
   
     G Am *      Am 
And I never wanted anything from you
        G Am *         Am 
Except everything you had and what was left after that too, oh
 G Am *   Am G 
Happiness hit her like a bullet in the back
                                                          Am *       Am 
Struck from a great height by someone who should know better than that

     G 
The dog days are over

The dog days are done
                     Am *
Can you hear the horses?
       Am              (No Chords)
'Cause here they come

     G 
Run fast for your mother, run fast for your father

Run for your children, for your sisters and brothers
                               Am *
Leave all your love and your longing behind
           Am 
You can't carry it with you if you want to survive

     G 
The dog days are over

The dog days are done
                  Am *
Can you hear the horses?
        Am 
'Cause here they come

     G 
The dog days are over

The dog days are done
                 Am *
The horses are coming
    Am 
So you better run 

     G 
The dog days are over

The dog days are done
                 Am *
The horses are coming
    Am 
So you better run 

 G

All Night Thing chords – Temple Of The Dog V2

 "All Night Thing"
 D A D F#m E 
She motioned to me That she wanted to leave
 D E D G 
And go somewhere warm Where we'd be alone
 C Bm D F 
I do not know, what's going on
 E D A F G  x2                    
But I'm guessing  It's an all night thing 


Verse 2
 D F A D A 
If it's an all night thing Nobody is gonna make it end
 D F A D A 
And if it don't begin Don't worry that I'll take offense
 D F F#m 
And if it's an all night thing And we fall like a tear falling
To the ground
 B E D G 
I'll never come around And you'll never hear a word from me
 A F G 
If it's an all night thing


Verse 3
 D A D F#m E 
I walked along, feeling at ease
 D E 
And falling like rain  Ooooo
 D G C Bm D F 
Into her scheme She won't let on what that will be
 E D A F G  x2    
But I'm guessing It's an all night thing
 D F A D A 
If it's an all night thing Nobody is gonna make it end
 D F A                        DA
And if it don't begin Don't worry that I'll take offense
 D F F#m 
And if it's an all night thing And we fall like a tear falling
To the ground
 B 
I'll never come around
 E D G 
And you'll never hear a word from me
 A F  Gx5   (end on  F#m )
If it's an all night thing

CC is a genius.

Eat Dinner Bury The Dog And Run Tabs by Polar Bear Club

 Song: Eat Dinner, Bury the Dog and Run
 Polar Bear Club
 Sometimes Things Just Disappear (2008)
Track 1

Enjoy!

Intro Pt. 1 (Guitar 1)

E--------------------------------------------------------|
B--------------------------------------------------------|
G--------------------------------------------------------|
D---------------------------------------0--------0-------|
A-----0-----0---------0-------0----0--2----0--2-----0----|
E---2-----2-----2--2-----2---5----------------3----------|

Intro Pt. 2 ("Two hundred gallons ago...") Repeat Once

E------0-----0-------0-----0-------0-----0--------------0--0--|
B------2-----0-------2-----0-------2-----0-----2--2-----2--2--|
G------2-----0-------2-----0-------2-----0-----2--2-----2--2--|
D------2-----2-------2-----2-------2-----2-----2--2-----2--2--|
A------0-----2-------0-----2-------0-----2-----0--0-----0--0--|
E---2~-2--2--0----2~-2--2--0----2~-2--2--0-----------2-----3--|

E------0-----0-------0-----0-------0-----0-------3------2-----|
B------2-----0-------2-----0-------2-----0-------3------3-----|
G------2-----0-------2-----0-------2-----0-------0------2-----|
D------2-----2-------2-----2-------2-----2-------0------0-----|
A------0-----2-------0-----2-------0-----2-------2------------|
E---2~-2--2--0----2~-2--2--0----2~-2--2--0-------3------------|

Verse 1 & 2 ("Walked in through my back door...") Play Twice

E-----------------------------------------------------------------|
B-----------------------------------------------------------------|
G----------2----------------------0----------------2--------------|
D-----x----2-------------0--2--4-----4--0-----x----2--------------|
A-----x----0----0--2--0-----------------------x----0-----0--2--0--|
E---2-x-2--2--------------------------------2-x-2--2--------------|

E---------------0-----0-----------------------------|
B---------------0-------3--0--3--5--3--0------------|
G---------------0-----------------------------------|
D----0--2--4----2-----------------------------------|
A---------------2-----------------------------------|
E---------------0-----------------------------------|

Chorus 1 & 2 (Yeah, I'm a fuck up...") Play Twice

E--------------------3--3--3---3--3----------------3--3--3---3--3-|
B-----------2--2--2--3--3--3---3--3-------2--2--2--3--3--3---3--3-|
G--------------4--4--0--0--0---0--0----------4--4--0--0--0---0--0-|
D--------4-----4--4--0--0--0---0--0-----4----4--4--0--0--0---0--0-|
A------2-------2--2--2--2--2---2--2---2------2--2--2--2--2---2--2-|
E--------------------3--3--3---3--3----------------3--3--3---3--3-|

E-----0--0--0---0--0-----3--3--3---3--3------|
B-----2--2--2---2--2-----3--3--3---3--3------|
G-----2--2--2---2--2-----0--0--0---0--0------|
D-----2--2--2---2--2-----0--0--0---0--0------|
A-----0--0--0---0--0-----2--2--2---2--2------|
E------------------------3--3--3---3--3------|

Interlude ("Today I reached into a shitter...")

E--------0--------0--------0--------0--------|
B--------2--------2--------2--------0--------|
G--------2--------2--------2--------0--------|
D--------2--------2--------2--------2--------|
A--------0--------0--------0--------2--------|
E--------2--------2--------2--------0--------|

Bridge 1 (Palm mute the Bm and Dmaj7)

E--------0--------0--------0--------0---------------------------------|
B--------3--------2--------3--------2---------------------------------|
G--------4--------2--------4--------2---------------------------------|
D--------4--------0--------4--------0--------2--2--2--2---5--5--5--5--|
A--------2--------0--------2--------0--------2--2--2--2---5--5--5--5--|
E--------------------------------------------0--0--0--0---3--3--3--3--|
Bridge 2 ("Nights like these won't be avoided...")

E--------0--------0--------3--------2--------|
B--------2--------3--------3--------3--------|
G--------2--------4--------0--------2--------|
D--------2--------4--------0--------0-----

Dog Inside Your Body Tabs by Butthole Surfers

 DOG INSIDE YOUR BODY

by the butthole surfers

 chris lawrence (mustang@islandnet.com)

This song is in drop D. DADGBE (could be DGCFAD too, but
drop D is easier)

I'll be the first to admit that this tab is not very good.

Intro:

E--------------------|
B--------------------| X 4
G--------------------|
D--------------------|
A--0-0-0-0-----------|
D--0-0-0-0-0-8-12-11-|

The verse is just a palm-muted open D chord w/ the intro riff
tagged on the end.

The little backwards sounding guitar riff is achieved by bending
the G string at the 3rd fret. I can't really tab it, you just need
to listen and figure out when to bend and return, how high to bend,
etc.

The chorus ("I feel you, I need you...") is the intro riff.

Back to more of the palm-muted open D again. Listen to the record
to hear when to throw the little intro riff in.

The 2nd backwards sounding skronky guitar consists of notes at
the 1st and 2nd fret of the G string, with some open G thrown
in at times too.

SOLO:     / = tremolo pick (pick very fast, listen to lp)

E-------------------------------------------------------------------------|
B--10-13-10-13-10-13-10-13b~~~~-b13r-13b-13-12----------------------------|
G---/-----/-----/-----/------------------------10-12-12-12-12-10----------|
D-----------------------bend high--------------------------------12-10-12-|
A-------------------------------------------------------------------------|
E-------------------------------------------------------------------------|

E----------------------------------------------------------------|
B----------------------------------------------------------------|
G-----10----12-10-12-10----------10-12-10-12b-10-12-10-12b\------|
D--12----12-------------12-10-12-----------------------high bend-|
A----------------------------------------------------------------|
E----------------------------------------------------------------|

and back to the verse "riff"...

and at the end, there's one last skronky riff.. again, any variety
of notes within the first 5 frets on the G string, bent wildly
back and forth, will suffice.

-------------------------------------------------
THE BUTTHOLE SURFERS GUITAR/BASS TAB ARCHIVE:
http://www.islandnet.com/~mustang/1401/index.html
-------------------------------------------------

Coiote Sanguinrio chords – Kaquinho Big Dog

 (intro)  Em C D Em G
Coiote Sanguinário era um cara muito mal
 Em G
Batia em seu cavalo até na cabeça do pau
 Em G
Aos 15 anos de idade assassinou seu pessoal
    C Am
Matou a tia o pai e a irmã
      Em
Enterrou todos no quintal

        G Em
YpinharrÊ, Ypinharrôu
    C Am Em
Até sua mãe ele estuprou

     Em G
E o Rato do Deserto era um cara solitário
      Em G
Cresceu virou xerife só por causa do salário
    Em G
Casou com Merilu só pra fazer papel de otário
      C Am
Achava um ricardão por mês
        Em
Escondidim no seu armário

         G Em
YpianhrrÊ, Ypinharrôu
      C Am Em
um corno estrelado     (2x)

(parte 2)
E um belo dia, o Coiote Sanguinário resolveu invadir a cidade
do bravo xerife Rato do Deserto. Foi uma batalha sanguinária....

(passagem)

E|-------3--------3--------3-------3---------3---------3------2------|
B|-------3--------3--------3-------3---------3---------3------3------|
G|------------------------------------------------------------2------|
D|----0--------0--------------------------0---------0---------0------|
A|--3--------2----------0--------0------3---------2------------------|
E|--------------------2--------3-------------------------------------|


         G D
Um fofoqueiro ao passar ali por perto
                       G D
Disse ao Rato do Deserto "o Coiote vem aí"
             G D
Corno estrelado começou a suadeira
                   G D
Passando por caganeira e terminando em piriri
          G D
Ele só tinha um revólver vinte e dois
          G D
E duas balas que comprou com um dumdum
             G D
Testou uma delas mas se arrependeu depois
           G D
Pois ela não furava nem um jirimum
       G D
E o Coiote já chegou fazendo zona
                      G D
Beliscou o bundão da dona que vendia acarajé
         G D
Se embebedou e no meio da bebedeira
 G
Mostrou o pinto pra uma freira
 D
Que rezava são josé
         G D
O Sanguinário nunca teve educação
        G D
Ele vivia com os dez dedos no nariz
           G D
E só sorria quando via os trapaião
         G D
Ele era fã do Bráulio e do Kakin

(repete passagem)

        G5
Mas o xerife Rato corno
       G#5
Resolveu sair do morno
       F5 G5
E acabar de vez com o tal de Sanguinário
              G5 G#5
Com uma vassoura e uma faca arregaçou sua casaca
           F5 G5
E disse hoje eu justifico o meu salário

         G D/F#
O Sanguinário quando viu o vinte e doôis
        Em
Que o xerife trazia na mão
           C G
Deu gargalhadas e mostrou o seu depoôis
               Am D
Um trinta e oito que parecia um canhão

    C G
os dois se olhou nos olhos
              Am G
E algo maravilhoso lhes aconteceu
 C
Um fogo intenso que subia
           G
Um gelo frio que descia
         Am G

Gonna Buy Me A Dog chords – Monkees

 Gonna Buy Me A Dog:The Monkees.
Album - The Monkees - #1 on BB Hot 200
on COLGEMS Records in 1966.
(The song is mostly them screwing around..
 but the song got a lot of air time in
 some areas..plus, it was a request.)

INTRO:  B A E 

#1.
 E 
You know my girl just called me up..and she 
                 E7 
woke me from my sleep.
     E 
You should have heard the things she said..
     E 
you know she hurt my feelings deep.
                       A 
I'm going to buy me a dog.

CHORUS:AD LIB:
 A E 
A dog?..a dog..Why? Why? Cause I need a friend now.

(Babe, you need all the friends you can get, I'm 

telling you.)
 E A 
I'm gonna buy me a dog..my girl, my girl don't love 
        B 
me, no how..(Don't ruin my song, man..it's the only 

song I have!
The song was already ruined before it was wrote.)

#2.
 E 
She used to bring my newspaper..(you don't even know 

where it's at!)
 E                       
Cause she knew where it was at..she used to keep me 
                   A E 
so contented..but I can teach a dog to do that!

CHORUS:AD LIB:
 E A 
I'm gonna buy me a dog!
(You can't teach dogs to do that, you can only train 
elephants.)
 A E 
Cause I need a friend now..(I need a friend now, now,
yeah.)
 E A 
I'm gonna buy me a dog..
(A dog, here Rover, Fido, Spot..)
                                    B 
my girl, my girl don't love me, no how.

(1,2,3..1234567..Hike!Hike!Hike!
I was late on that one.)
I just got back from Africa, ya know, I was playing cards 
with the natives..oh, Zulus?..No, I usually won, ha-ha.
I wish I had a glass of water..Why, are you thirsty?
No, I want to see if my neck leaks.
I'd buy a raccoon but John already has one..$35 bucks.
Where do I come in? Here?

CHORUS:AD LIB:
 E A 
I'm gonna buy me a dog..( dog..a dog, umm yeah.)
                        E 
Cause I need a friend, now..(Yeah, yeah..Bop-bop-she-bop-bop- 
rama-lama-.)
 E A B 
I'm gonna buy me a dog..my girl, my girl don't love me, no how.
(How-How-How now, brown cow?
(I think I'm gonna buy me a dog, yes sir..I'm gonna buy me 
a dog. If I was looking for a word to describe what I'm gonna buy
I think dog would be the word. Would it be dog? It would be dog.
Definitely dog.
It would come springing from my lips, dog..Boing, boing boing.
It would be springing! Is that it, Tommy?Can you turn it off please?
Can somebody open the door and let us out?
They're coming to take us away! Ha-ha, he-he, ho-ho.) (Fade.)


A sixties smash from Kraziekhat.

Alpha Dog Tab by Fall Out Boy

-------------------------------------------------------------------------------
			     ALPHA DOG - Fall Out Boy
			 off "Believers Never Die" (2009)
-------------------------------------------------------------------------------
Tabbed by: Kevin Heiland (Kevy Absolution)
Email: kevin.heiland

Notes: On the original demo version, "Alpha Dog and Omegalomaniac", the lead guitar is 
a lot easier to hear, so if you need help hearing the lead line, look it up on YouTube.

I don't include strumming patterns because it's a waste of space; listen to the song.

Vote if you would. It's the only tab out there, and I know it's very accurate, but I'm
open to other suggestions. Thanks for reading; hope you enjoy. Lyrics at the end.

Tuning: DADGBE

Intro Riff: 

Guitar 1: (Tremolo Picked)
							First Time Only
e|--------------------------------------------------------------|-------------------|
B|------------------10//----------------10//---------------10//-|11-10-11-10--------|
G|--------10//-12//-----------10//-12//----------10//-12//------|------------12-10--|
D|---12//----------------10//----------------8//----------------|-------------------|
A|--------------------------------------------------------------|-------------------|
D|--------------------------------------------------------------|-------------------| x2

Guitar 3: (Eight-note strumming)
						  Last Note
e|------------------------------|-------------|
B|------------------------------|-------------|
G|------------------------------|-------------|
D|--12----10----8----7----------|--7~---------|
A|--12----10----8----7----------|--7~---------|
D|--12----10----8----7----------|--7~---------| x2

Verse: "Clap until your hands hurt, standing ovations or 'boos'".

Guitar 1:

e|----------------------------------------------------------------------|
B|--------------------13--11-10--------------------10~------------------|
G|-10-------10-10-9-------------12-10-------10-12-------10p7h10p7-------|
D|----10h12---------------------------10h12-----------------------------|
A|----------------------------------------------------------------------|
D|----------------------------------------------------------------------| x4

Guitar 2:

e|----------------------------------------------------------------------|
B|----------------------------------------------------------------------|
G|-10-------10-10-9---12-10-9---------------10-12-----------------------|
D|----10h12-------------------10--12-10-12---------12p10h12p10----------|
A|----------------------------------------------------------------------|
D|----------------------------------------------------------------------| x4

Guitar 3: (Eighth-note strumming)

e|------------------------------|
B|------------------------------|
G|------------------------------|
D|--12----10----8----7----------|
A|--12----10----8----7----------|
D|--12----10----8----7----------| x4

Pre-Chorus: "forever..."

Guitar 3: (Acoustic)
			   First Ending   Second Ending
e|---5----x-------|----5---------|---xxxx---|
B|---5----x-------|----6---------|---xxxx---|
G|---5----5-------|----7---------|---xxxx---|
D|---7----5-------|----7---------|---xxxx---|
A|---7----5-------|----5---------|---xxxx---|
D|---7----5-------|----x---------|---xxxx---| x2

Chorus: "Alpha Dog and Oh-Oh-Omegalomaniac..."

Guitar 3: 
				  First and Third Ending
e|--------------------|--------------------|
B|--------------------|--------------------|
G|--------------------|--------------------|
D|--0--10--7--8-------|---8-7-5-3----------|
A|--0--10--7--8-------|---8-7-5-3----------|
D|--0--10--7--8-------|---8-7-5-3----------| x4

Intro Riff: 

Guitar 1: (Tremolo Picked)
								First Time Only
e|--------------------------------------------------------------|-------------------|
B|------------------10//----------------10//---------------10//-|11-10-11-10--------|
G|--------10//-12//-----------10//-12//----------10//-12//------|------------12-10--|
D|---12//----------------10//----------------8//----------------|-------------------|
A|--------------------------------------------------------------|-------------------|
D|--------------------------------------------------------------|-------------------| x2

Guitar 3: (Eight-note strumming)
						  Last Note
e|------------------------------|-------------|
B|------------------------------|-------------|
G|------------------------------|-------------|
D|--12----10----8----7----------|--7~---------|
A|--12----10----8----7----------|--7~---------|
D|--12----10----8----7----------|--7~---------|

Verse: "We must have the best coast, tell the best jokes..."

Guitar 1:

e|----------------------------------------------------------------------|
B|--------------------13--11-10--------------------10~------------------|
G|-10-------10-10-9-------------12-10-------10-12-------10p7h10p7-------|
D|----10h12---------------------------10h12-----------------------------|
A|----------------------------------------------------------------------|
D|----------------------------------------------------------------------| x2

Guitar 2:

e|----------------------------------------------------------------------|
B|----------------------------------------------------------------------|
G|-10-------10-10-9---12-10-9---------------10-12-----------------------|
D|----10h12-------------------10--12-10-12---------12p10h12p10----------|
A|----------------------------------------------------------------------|
D|----------------------------------------------------------------------| x2

Guitar 3: (Eighth-note strumming)

e|------------------------------|
B|------------------------------|
G|------------------------------|
D|--12----10----8----7----------|
A|--12----10----8----7----------|
D|--12----10----8----7----------| x2

Pre-Chorus: "Forever..."

Guitar 3: (Acoustic)
			   First Ending   Second Ending
e|---5----x-------|----5---------|---xxxx---|
B|---5----x-------|----6---------|---xxxx---|
G|---5----5-------|----7---------|---xxxx---|
D|---7----5-------|----7---------|---xxxx---|
A|---7----5-------|----5---------|---xxxx---|
D|---7----5-------|----x---------|---xxxx---| x2

Chorus: "Alpha Dog and Oh, Oh, Omegalomaniac"

Guitar 3: 
				  First and Third Ending
e|--------------------|--------------------|
B|--------------------|--------------------|
G|--------------------|--------------------|
D|--0--10--7--8-------|---8-7-5-3----------|
A|--0--10--7--8-------|---8-7-5-3----------|
D|--0--10--7--8-------|---8-7-5-3----------| x4

Bridge: "You're not the first, or the last..."

Guitar 3: (Acoustic)

e|---5--x--7--x--8---x--7-7--x--7-7--x--5-5--x--5-5--x--5-5--x--5-5--x------|
B|---6--x--8--x--10--x--8-8--x--8-8--x--6-6--x--6-6--x--6-6--x--6-6--x------|
G|---7--x--9--x--10--x--9-9--x--9-9--x--7-7--x--7-7--x--7-7--x--7-7--x------|
D|---7--x--9--x--10--x--9-9--x--9-9--x--7-7--x--7-7--x--7-7--x--7-7--x------|
A|---5--x--7--x--8---x--7-7--x--7-7--x--5-5--x--5-5--x--5-5--x--5-5--x------|
D|------x-----x------x-------x-------x-------x-------x-------x-------x------|

e|---5--x--3--x--1---x--1-1--x--1-1--x--1-1--x--1-1--x--1-1--x--3-3--x------|
B|---6--x--5--x--3---x--3-3--x--3-3--x--3-3--x--3-3--x--3-3--x--5-5--x------|
G|---7--x--5--x--3---x--3-3--x--3-3--x--3-3--x--3-3--x--3-3--x--5-5--x------|
D|---7--x--5--x--3---x--3-3--x--3-3--x--3-3--x--3-3--x--3-3--x--5-5--x------|
A|---5--x--3--x--1---x--1-1--x--1-1--x--1-1--x--1-1--x--1-1--x--3-3--x------|
D|------x-----x------x-------x-------x-------x-------x-------x-------x------|

e|---5--x--3--x--1---x--1-1--x--3-3--x--3-3--x--1-1--x--1-1--x--3-3--x------|
B|---6--x--5--x--3---x--3-3--x--5-5--x--5-5--x--3-3--x--3-3--x--5-5--x------|
G|---7--x--5--x--3---x--3-3--x--5-5--x--5-5--x--3-3--x--3-3--x--5-5--x------|
D|---7--x--5--x--3---x--3-3--x--5-5--x--5-5--x--3-3--x--3-3--x--5-5--x------|
A|---5--x--3--x--1---x--1-1--x--3-3--x--3-3--x--1-1--x--1-1--x--3-3--x------|
D|------x-----x------x-------x-------x-------x-------x-------x-------x------|

e|---5--x--3--x--1---x--1-1--x--1-1--x--1-1--x--1-1--x--1-1--x--3-3--x------|
B|---6--x--5--x--3---x--3-3--x--3-3--x--3-3--x--3-3--x--3-3--x--5-5--x------|
G|---7--x--5--x--3---x--3-3--x--3-3--x--3-3--x--3-3--x--3-3--x--5-5--x------|
D|---7--x--5--x--3---x--3-3--x--3-3--x--3-3--x--3-3--x--3-3--x--5-5--x------|
A|---5--x--3--x--1---x--1-1--x--1-1--x--1-1--x--1-1--x--1-1--x--3-3--x------|
D|------x-----x------x-------x-------x-------x-------x-------x-------x------|

Chorus:

Guitar 3: 
				  First and Third Ending
e|--------------------|--------------------|
B|--------------------|--------------------|
G|--------------------|--------------------|
D|--0--10--7--8-------|---8-7-5-3----------|
A|--0--10--7--8-------|---8-7-5-3----------|
D|--0--10--7--8-------|---8-7-5-3----------| x4

Intro Riff: 

Guitar 1: (Tremolo Picked)
									First Time Only
e|--------------------------------------------------------------|-------------------|
B|------------------10//----------------10//---------------10//-|11-10-11-10--------|
G|--------10//-12//-----------10//-12//----------10//-12//------|------------12-10--|
D|---12//----------------10//----------------8//----------------|-------------------|
A|--------------------------------------------------------------|-------------------|
D|--------------------------------------------------------------|-------------------| x2

Guitar 3: (Eight-note strumming)
						  Last Note
e|------------------------------|-------------|
B|------------------------------|-------------|
G|------------------------------|-------------|
D|--12----10----8----7----------|--7~---------|
A|--12----10----8----7----------|--7~---------|
D|--12----10----8----7----------|--7~---------|

Clap until you hands hurt,
Standing ovations or boos,
Watch us until we blur,
Walk off into the sunset
Tell rock and roll I'm alone again,
I want to put the Midwest home again,
Your time has passed
They say never means never,
So the fast dance won't last
But never means forever
Never means forever

Alpha Dog and Oh, Oh, Omegalomaniac
Alpha Dog and Oh, Omegamegalo
Welcome to the new deja vu,
I can almost see the wizard through the curtains,
Alpha Dog and Oh, Oh, Omegalomaniac

We must have the best coast, tell the best jokes
We must make it hard to look so easy
Doing something so hard
You must see my way
They squint when they look at me
I'm a, I'm a star
I'm a, I'm a star
I'm a star
Oh, I'm a star

Alpha Dog and Oh, Oh, Omegalomaniac
Alpha Dog and Oh, Omegamegalo
Welcome to the new deja vu,
I can almost see the wizard through the curtains,
Alpha Dog and Oh, Oh, Omegalomaniac

You're not the first, or the last,
But you're possibly the prettiest
He's a fighter past his prime
He's in the gutter waving his hands
"I'm just fine'

Not the first, or the last,
But you're possibly the prettiest
He's a fighter past his prime
He's in the gutter wavin his hands

Alpha Dog and Oh, Oh, Omegalomaniac
Alpha Dog and Oh, Omegamegalo
Welcome to the new deja vu,
I can almost see the wizard through the curtains,
Alpha Dog and Oh, Oh, Omegalomaniac