Tag: don

Sweet Dreams chords – Don Gibson

 Sweet Dreams:Don Gibson.
#9 on US Country on MGM
Records in 1956.
(He re-released the song on RCA in
 1960 and it hit #6.)

INTRO:  G A D 

#1.
 D E A D E 
Sweeeeet dreams of you, every night I 
    A 
go through.
     D G D                 
Why can't I forget you, and start my life 
  Bm 
anew?
   D G A D 
Instead of having sweet dreams about you.

#2.
 D E A 
You don't love me, it's plain.
          D E A 
I should know you'll never wear my name.
 D G D Bm 
I should hate you the whole night through.
   D G A D 
Instead of having sweet dreams about you.


INTERLUDE:  D E A G D E A D G D Bm D G A D 


#3.
 D E A D E 
Sweeeeeet dreams of you, dreams I know can't 
      A 
come true.
 D G D 
Why can't I forget the past, start lovin' 
         Bm 
someone new?
   D G A D 
Instead of having sweet dreams about you.



A fifties smash from Kraziekhat.


Lonesome Number One chords – Don Gibson

 Lonesome Number One:Don Gibson.
#2 US Country and #59 on BB Hot
100 on RCA Records in 1961.

INTRO:  C F C F C 

CHORUS:
 C F C 
Lonesome number one, just call me 
          G 
lonesome number one.
 C F 
Although no titles have I won, I 
 C G C 
surely must be lonesome number one.
 
#1.
 C G                   
Every love I've had has faded like the dew.
 C G 
Every one I wanted has wanted someone new.
 C F 
Heartaches hang around, they always come.
   C G C 
I surely must be lonesome number one.

CHORUS:
 C F C 
Lonesome number one, just call me 
          G 
lonesome number one.
 C F 
Although no titles have I won, I 
 C G C 
surely must be lonesome number one.


INTERLUDE:  C F C F C 
 
#2.
 C G 
Seems I'm always losing, love just won't come 

near.
 C G 
Just when love gets close, it always disappears.
 C F 
Sorrow always keeps me on the run.
   C G C 
I surely must be lonesome number one.
 
CHORUS:
 C F C 
Lonesome number one, just call me 
          G 
lonesome number one.
 C F 
Although no titles have I won, I 
 C G C 
surely must be lonesome number one.

OUTRO:
 G C 
Surely must be lonesome number one.



A sixties smash from Kraziekhat.

Give Myself A Party chords – Don Gibson

 Give Myself A Party:Don Gibson.
#5 US Country and #46 on BB Hot 100
on RCA Records in 1958.

INTRO:  G C D G 

#1.
 Em G C D 
I've got a lot of memories to last me 
                G 
the rest of my life.
 G C D 
So, if you don't want to love me, baby, 
                G 
that'll be all right.
 G C D 
I'm gonna take all the lovin' that I 
          G 
have for you.
 G C D 
Gonna take all the loneliness, sit right 
               G 
down with the blues.

CHORUS:
 G C 
I'm gonna give myself a party, and serve 
     G 
old memories.
 G Em A 
Give myself a party, think of how it used 
    D 
to be.
                  C G 
Remember all the happiness that we once knew.
 G Em D 
I'm gonna give myself a party, just me and 
     G C G 
the blues..(just me and the blues.)


INTERLUDE:  G C D G  

#2.
 Em G C D G 
A  few of your love letters, a photograph or two.
 G C D C 
A gift you gave on my birthday with words of, I 
      G 
love you.
 G C 
There's a lots of things to think about, when 
        D G 
you're happy, feeling blue.
 G C D 
So, I'm gonna take all the loneliness, sit right 
               G 
down with the blues.

CHORUS:
 G C 
I'm gonna give myself a party, and serve 
     G 
old memories.
 G Em A 
Give myself a party, think of how it used 
    D 
to be.
                  C G 
Remember all the happiness that we once knew.
 G Em D 
I'm gonna give myself a party, just me and 
     G C G 
the blues..(just me and the blues.)



A fifties smash from Kraziekhat.



Oh Lonesome Me chords – Don Gibson V2

 Oh Lonesome Me:Don Gibson.
#1 US Country and #7 on BB Hot
100 on RCA Records in 1958.

INTRO:  Eb 

#1.
 Eb Bb 
Everybody's goin' out and havin' fun.

I'm just a fool for staying home and 
 Eb 
havin' none.
                                 Ab 
I can't get over how she set me free.
 Bb Eb 
Oh, lonesome me.

#2.
 Eb Bb 
A bad mistake I'm making by just hangin'

round.
 Bb 
I know that I should have some fun and 
 Eb 
paint the town.
 Eb Ab 
A lovesick fool is blind and just can't see.
 Bb Eb 
Oh, lonesome me.

CHORUS:
      Bb F 
I'll bet she's not like me, she's out and 

fancy free..flirting with the boys with all 
     Bb 
her charms.
 Bb F 
But I still love her so, and brother don't 

you know..I'd welcome her right back here 
       Bb 
in my arms.

#3.
 Bb Eb 
Well, there must be some way I can lose these 
 Bb 
lonesome blues.
 Bb Eb 
Forget about the past and find somebody new.
 Eb Ab 
I've thought of everything from A to Z.
 Bb Eb 
Oh, lonesome me.


INTERLUDE:  Eb Bb Eb Ab Bb Eb 

CHORUS:
      Bb F 
I'll bet she's not like me, she's out and 

fancy free..flirting with the boys with all 
     Bb 
her charms.
 Bb F 
But I still love her so, and brother don't 

you know..I'd welcome her right back here 
       Bb 
in my arms.

#4.
 Bb Eb 
Well, there must be some way I can lose these 
 Bb 
lonesome blues.
 Bb Eb 
Forget about the past and find somebody new.
 Eb Ab 
I've thought of everything from A to Z.
 Bb Eb 
Oh, lonesome me.

OUTRO:
 Bb Eb Bb Eb 
Oh, lonesome me..oh, lonesome me..(Fade.)



A fifties smash from Kraziekhat.

Vincent chords – Don Mclean V6

 Starry Starry
 D Em 
night paint your pallete blue and grey
               G A7 D 
Look out on a summers day with eyes tha know the darkness in my soul
                                       Em 
Shadows on hills sketch the tress and daffodils
                          G A7 D 
Catch the breeze and the winter chill In colors on the snowy linen land
chorus
 G D Em A7 D Bm 
        And now I understand      what you tried to say to me
                          Em7 A7 Bm 
How you suffered for you sanity     How you tried to set them free
                               E7 Em7 A7 D 
They would not listen the did not know how   perhaps they 'll listen now
               D Em 
Starry starry nite flamings flowr's that brightly blaze
               G A7 D 
Swirling coulds in violet haze reflect in VIncents eyes of china blue
                                       Em 
Colors changing hue,morning fields of amber graing
                          G A7 D 
Weatherd faces lined inpain Are soothed beneath the artists loving hand
chorus
           D Em7 A7 D 
{listen now}  For they could not love you  but still your love was true
 Bm Em7 Gm6 
    And when no hope was left in sight on that starry starry nite
     D C7 B7 Em7 
You took you life as lovers often do But I could of told you Vincent
      G A7 D 
This world was never meant for one as beautiful as you
               D Em 
Starry starry nite portraits hung in empty halls
               G A7 D 
frameless heads on nameless walls with eyes that watch the world and can't forget
                                       Em 
Like the strangers that you've met,the ragged men in ragged clothes
                          G A7 D 
The silver thorn the bloody rose Lie crushed and broken on the virgin snow
chorus
 G D Em A7 D Bm 
        And now I understand      what you tried to say to me
                          Em7 A7 Bm 
How you suffered for you sanity     How you tried to set them free
                                   E7 Em7 A7 
They would not listen, they're not listening still  perhaps they never will

Glory To The Lord chords – Don Moen V2

 GLORY TO THE LORD

Intro:  C#m C#m B A E G#7 G#7sus G#7 

Verse 1:
 C#m C#m B A 
 Who holds the heavens in His hands?
 C#m E G#7 
 Who made the stars by the word of His power?
 C#m C#m B A  
 Who put the Spirit in man?
                      E G#7sus G#7 
 And causes all the earth to cry out glory?

CHORUS:
               C#m B 
 Glory to the Lord!
 A E B 
 Worship Him, the God of our Salvation
               C#m B A 
 Glory to the Lord
 A E B 
 Honor Him: He reigns, He rules the nations!
        F#m 
 He is righteous and worthy
        C#m B A   
 To be worshiped and adored
            F#m G#7 
 Lift your voices and give
                    C#m B A  (2x)
 Glory to the Lord!

VERSE 2:
 C#m C#m B 
 Who holds the righteous by the hand?
 A E G#7 
 Who is the way in this marvelous hour?
 C#m C#m B A 
 Who stirs the heart of a man?
 A E G#7sus G#7 
 And causes all His saints to cry out, Glory!

ADLIB (Instrumental): C#m B A E B (2x)
                      F#m C#m B A
                      F#m G#7 A Bb A7 (MOVE CHORDS ONE STEP HIGHER)

Starlight Could You Be Mine chords – Don Diablo Matt Nash

 Bbm F# 
Starlight, look at us shine
 Db        
Could you be mine
 Ab 
Could you be mine
 Bbm F# 
White lies watching the skies
 Db 
Could you be mine
 Ab 
Could you be mine
 Bbm F# 
Don't go wasting your time
 Db Ab 
Don't go losing your mind
 Bbm F# 
Starlight, look at us shine
 Db 
Could you be mine
 Ab Bbm 
Could you be mine

http://www.dondiablo.com/
http://www.hausofnash.com/
http://www.youtube.com/watch?v=t6hD6r3sIOE

Lord I Hope This Day Is Good chords – Don Williams V2

 Lord, I hope this day is good   By: Don Williams     Key of D

Intro:  D 


Chorus
 D 
Lord I hope this day is good, I'm feeling empty and misunderstood
 A 
I should be thankful Lord I know I should, 
         G A D 
But Lord I hope this day is good


 D 
Lord, have you forgotten me?  I've been praying to you faithfully
 A 
I'm not saying I'm a righteous man
     G A D 
But Lord I hope you understand


 Bm F#m G D 
I don't need fortune and I don't need fame
 Bm F#m G D 
Send down the thunder Lord, send down the rain
 Bm F#m G D 
But when you're planning just how it should be
 A G A 
Plan a good day for me.

Chorus
Instrumental-(same chords as the chorus:  D A G A D )


 Bm F#m G D 
You've been the king since the dawn of time
 Bm F#m G D 
All that I'm asking is a little less crime
 Bm F#m G D 
It might be hard for the Devil to do
     A G A 
But it would be easy for you.

Chorus
Instrumental out-(same chords as the chorus:   D A G A D )

Till Tomorrow chords – Don Mclean V2

 D G/D D G/D D G/D 
What can this be, can you tell me?
                     D G/D D G/D D G/D 
Would you like to discover why we're not free to be lovers?
                      D G/D 
I've been wanting to ask you
 Bm F#m Bm F#m 
Where has all the love gone and what have we become?
 Bm F#m Bm Em7 A7 
Storm clouds full of thunder move silent as they drum and when
                D G/D D E G/D 
They're gone, we'll be fine til tomorrow
                  D G/D D G/D D G/D 
Though I hope it won't rain, you will be mine
                D G/D D G/D 
And my sorrow will take wings in the morning
 Bm F#m Bm F#m 
High above the heavens a rainbow paints the sky
 Bm F#m 
White doves sing their songs of love 
     Bm Em7 A7 D G/D D G/D 
I watch them as they fly and wonder what can this be
                 D G/D D G/D 
Can you tell me? Would you like to discover 
   D G/D D G/D D G/D     
Why we're not free to be lovers?

 D G/D D G/D D G/D D D D    fade out

Lay Down Beside Me chords – Don Williams

 Lay Down Beside Me
written and recorded by Don Williams        [3/4 time]
 
 G C D7 G 
I spent my life  lookin' for you
         C D7 G 
Findin' my way wasn't easy to do 
     D7 C G 
But I knew there was you all the while
     C D7 
And its been worth every  mile
 
    G C 
So Lay Down Beside Me love me and hide me
 G D7 
Kiss all the hurtin' of this world a way
     G C 
And hold me so close that I feel your heart beat
     G D7 G 
And don't ever wander a way
 
 G C D7 G 
Mornings and evenings  all were the same
              C D7 G 
There was no music till I heard year name
     D7 C G 
But I knew when I saw you smile
 C D7 
Now I can rest for a while 
 
    G C 
So Lay Down Beside Me love me and hide me
 G D7 
Kiss all the hurtin' of this world a way
     G C 
And hold me so close that I feel your heart beat
     G D7 G 
And don't ever wander a way

Los Bandoleros intro Tabs by Don Omar V2

 Tabs - Leonid F.

Here's my first attempt at a tab, hope you all enjoy this wicked guitar intro!

Standard Tuning - CAPO 3

| /  slide up
| \  slide down
| h  hammer-on
| p  pull-off
| ~  vibrato


e|-------------0----------0-0h1p0----------------5-7h8--0--------|
B|-0h1p0-----1--------1-3-----------------0h1-3-5------5---------|
G|-------2-----------2------------2------2-----------------------|
D|---------2--------2-------0-----------2------------------------|
A|-0-----------------------------------------------0-------------|
E|---------------------------------------------------------------|

e|----0-------------0h1p0---0------------------------------------|
B|---1--3-1-1/3-----------3------1---0--1----1---0--1------------|
G|--2-----------------------------2---2--2----2---2--2-----------|
D|-2--------0----------------------2------2----2------2----------|
A|-------------------------------0---0--0----0---0--0------------|
E|---------------------------------------------------------------|

e|-1---0--1----1---0--1------------------------------------------|
B|--3------3----3------3-----------------------------------------|
G|---2--2---2----2--2---2----------------------------------------|
D|-0---0--0----0---0--0------------------------------------------|
A|---------------------------------------------------------------|
E|---------------------------------------------------------------|

e|----------0-----1p0--------------------------------------------|
B|-1---0-0h1-----------------------------------------------------|
G|---------------2-----------------------------------------------|
D|----2---------0-----------0------------------------------------|
A|-0--------------------------3-2~-0-----------------------------|
E|---------------------------------------------------------------|

Actors Tabs by Don Broco V3

 -------------------------------------------------------------------------------
                             Actors - Don Broco
-------------------------------------------------------------------------------
:ThunderBBM
TheThunder117

Tuning: Drop D (DADGBE)

Intro
e|--------------------------------------------------------------------------|
B|-------------------------------------------------------9--11-11-9-11-11-9-|
G|--------------------------------9-9--------------------9--11-11-9-11-11-9-|
D|---11-11-11----11----11--11-11--9-9----11-11-11----11--9--11-11-9-11-11-9-|
A|---11-11-11----11----11--11-11--7-7----11-11-11----11---------------------|
D|---11-11-11----11----11--11-11---------11-11-11----11---------------------|
(x2)

e|-------------------------------------------------------------------------------|
B|-------------------------------------------------------9--11-11-11-11-11-11-11-|
G|--------------------------------9-9--------------------9--11-11-11-11-11-11-11-|
D|---11-11-11----11----11--11-11--9-9----11-11-11----11--9--11-11-11-11-11-11-11-|
A|---11-11-11----11----11--11-11--7-7----11-11-11----11--------------------------|
D|---11-11-11----11----11--11-11---------11-11-11----11--------------------------|

e|--------------------------------------------------------------------------|
B|--------------------------------------------9--11-11-11-11-11-11-11-------|
G|--------------------------------------------9--11-11-11-11-11-11-11-------|
D|---7-7-7----7----7--7-7--9-9----7-7-7----7--9--11-11-11-11-11-11-11-------|
A|---7-7-7----7----7--7-7--9-9----7-7-7----7--------------------------------|
D|---7-7-7----7----7--7-7--9-9----7-7-7----7--------------------------------|


 1st Verse
e|-----------------------|
B|-----------------------|
G|-----------------------|
D|-----------------------|
A|---4---7---------------|
D|------------4--6--0----|
(x5)

e|--------------------------|
B|--------------------------|
G|--------------------------|
D|------------7-7-7-7-7-7-9-|
A|---4---7----7-7-7-7-7-7-9-|
D|------------7-7-7-7-7-7-9-|


Chorus
e|--------------------------------------------------------------------------|
B|--------------------------------------------------------------------------|
G|--------------------------------------------------------------------------|
D|---11-11-11-11-11-11-9-9-9-9-9-9-7-7-7-7-7-7-7-7-7-7-7-7-9-9-9------------|
A|---11-11-11-11-11-11-9-9-9-9-9-9-7-7-7-7-7-7-7-7-7-7-7-7-9-9-9------------|
D|---11-11-11-11-11-11-9-9-9-9-9-9-7-7-7-7-7-7-7-7-7-7-7-7-9-9-9------------|
(x3)

e|----------------------------------------------------------------------------------------|
B|----------------------------------------------------------------------------------------|
G|----------------------------------------------------------------------------------------|
D|---11-11-11-11-11-11-9-9-9-9-9-9-4-4-4-4-4-4-4-4-4-4-4-4-7-7-7-7-7-7-7-7-7-7-7-7-9-9-9--|
A|---11-11-11-11-11-11-9-9-9-9-9-9-4-4-4-4-4-4-4-4-4-4-4-4-7-7-7-7-7-7-7-7-7-7-7-7-9-9-9--|
D|---11-11-11-11-11-11-9-9-9-9-9-9-4-4-4-4-4-4-4-4-4-4-4-4-7-7-7-7-7-7-7-7-7-7-7-7-9-9-9--|


Post Chorus (Similar to intro) 
e|-------------------------------------------------------------------------------|
B|-------------------------------------------------------9--11-11-11-11-11-11-11-|
G|--------------------------------9-9--------------------9--11-11-11-11-11-11-11-|
D|---11-11-11----11----11--11-11--9-9----11-11-11----11--9--11-11-11-11-11-11-11-|
A|---11-11-11----11----11--11-11--7-7----11-11-11----11--------------------------|
D|---11-11-11----11----11--11-11---------11-11-11----11--------------------------|

e|--------------------------------------------------------------------------|
B|--------------------------------------------9--11-11-11-11-11-11-11-------|
G|--------------------------------------------9--11-11-11-11-11-11-11-------|
D|---7-7-7----7----

I Could Never Promise You chords – Don Francisco

 Words and Music by Don Francisco, 1977 (Capo 1st Fret if desired)

 D A 
I could never promise you on just my strength alone
     G D A 
That all my life I'd care for you, and love you as my own
       D A 
I've never known the future, I only see today
  C                  Êm7               A D G A 
Words that last a lifetime would be more than I could say

          D A 
But the love inside my heart today(tonight) is more than mine alone
    G D A 
It never changes, it never fails, never seeks it's own
    D A 
And by the God who gives it, and who lives in me and you
 C Em7 A D            
I know the words I speak today(tonight) are words I'm going to do

(Chorus)

    Bm Em G A 
And so I stand before you now for all to hear and see
 G Em A D 
I promise you in Jesus' name the love He's given me
      Bm Em G A 
And through the years on earth and as eternity goes by
      G Em A 
The life and love He's given us are never going to die

(Interlude)

(Chorus)


    Bm Em G A 
And so I stand before you now for all to hear and see
 G Em A D 
I promise you in Jesus' name the love He's given me
         Bm Em G A 
And through the years on earth and as eternity goes by
       G Em A 
The life and love He's given us are never going to die
       G Em A D 
The life and love He's given us are never going to die

If Hollywood Dont Need You Honey I Still Do chords – Don Williams

 If Hollywood Don't Need You (Honey I Still Do)
Half-step down
Capo 2nd Fret

 A E F#m   
Well, you know I'm not much good at writin' letters 
    D E 
So I gave up and decided that I'd call 
 A E F#m                             
No, there's really not much news to tell you 
 D E 
Things back here, they never change at all 
 F#m D A       
It snowed today, it's cold here for November 
 F#m D E 
But I hear the weather's warm out there


         A D    
Oh, and if you see Burt Reynolds
           E A 
Would you shake his hand for me
                    D E 
And tell old Burt, I've seen all his movies 
         A D     
Well, I hope you make the big time 
   E A 
I hope your dreams come true 
        D           
But if Hollywood don't need you 
 E F#m 
Honey, I still do

      A E F#m 
Last night I drove the truck to Amarillo 
 D E 
Some friends and I had a laugh or two 
 A E F#m  
But lately we don't cut up like we used to 
 D E 
'Cause all that I can think about is you 
 F#m D A    
I know this is what you've always wanted 
 F#m D E 
But I know now that all I want is you 

         A D    
Oh, and if you see Burt Reynolds
           E A 
Would you shake his hand for me
                    D E 
And tell old Burt, I've seen all his movies 
         A D     
Well, I hope you make the big time 
   E A 
I hope your dreams come true 
        D           
But if Hollywood don't need you 
 E F#m 
Honey, I still do

    D   
If Hollywood don't need you 
 E A     
Honey, I still do

You Wanna Know Tabs by Don Broco

 Just gonna start off by saying that I know this won't be 100% accurate, but I thought
I'd at least put up what I'd got for this song so far to help anyone else out as there's
no full tab for this song yet, I'm not gonna bother putting down the strumming patterns 
because if you need help figuring that out, well...

Tuning: Dropped C#

Intro Pt. 1:

|-----------------|
|-----------------|
|-----------------|
|--5-----------4--|
|--3--2--0--5--2--|
|-----2--0--5-----|
   *  *  *  *  *

Intro Pt. 2/Chorus: x2

|--3-3---------2--2--5--2--|
|--3-7---------5--3--8--2--| You can easily hear when to move up the note on
|--7-7---------4--2--7--4--| the F#.
|--5-5---------2--0--5--4--|
|--3-3------5--2--0--5--2--|
|-------5-7----2--0--5-----|

Verses: Delay effect.

|---------------------------------------------------------------|
|----------------------------------------10--------8-----5--10--|
|--------7-------3-------7----3-3-----7---------7----------7----|
|--5-54-4--5-50-0--5-54-4--5-5---0-5-5--5----5-5--5--5-5--5-----|
|---------------------------------------------------------------|
|---------------------------------------------------------------|
   * ** *  * ** *  * ** *  * ** *  * ** *    * ** *  * ** *

Verse 2 Riff: Delay Effect

|---------------------------------------------------------------------------|
|---------------10p85h7----------------10--------8-----5--10--10p85h7-------|
|--------7-7/9----------7h9/11------7---------7----------7-----------7h9/11-|
|--5-54-4------------------------5-5--5----5-5--5--5-5--5-------------------|
|---------------------------------------------------------------------------|
|---------------------------------------------------------------------------|
   * ** *                        * ** *    * ** *  * *  *

Bridge: Delay Effect

|----------------------------------------|
|----------88888888~----------88888888~--| Keep Repeating.
|------0------------------7---77777777~--|
|----5--0---------------5--0--00000000~--|
|--7------------------7------------------|
|----------------------------------------|

Outro:

|-----------------------------|
|-----------------------------|
|--12-12--14-14-14-12--12-12--| Repeat til end, pattern isn't too hard to
|--12-12--12-12-12-12--12-12--| Figure out and you can easily hear when you
|--10-10--10-10-10-10--10-10--| Need to move up on the F#.
|--10-10--10-10-10-10--10-10--|

That's all I've got really, just to give anyone else an idea how to get a more accurate
finished tab.

Just Reach Out chords – Don Moen

 Intro    G D C Em D G D               
Sometimes the night seems to go on for days
           
           C Em D  
When it's hard to see the light through the darkness and haze

   G D  
While the world around you makes you feel out of place
           C Dsus4 D  
And the burdens that you carry are just too hard to face
 
Chorus
        Em C D  
Just reach out and He'll reach in
   Em C Dsus4 D  
Take your broken heart and make it whole again
       Em C G  
It don't matter who you are or where you've been
        Am D G  
Just reach out, and He'll reach in

Then  Am D G 
Verse 2



   G D               
Standing in a crowd, but still all alone 
       C Em D 
Crying out for answers that nobody knows
         G D  
Everybody's busy looking out for themselves
            C Dsus4 D  
Is there anyone who really cares about anyone else?

Chorus again 

Bridge
    F C G 
You say you've walked ten thousand steps away
   F C G  
But don't you know that it's only one step back? 
    F C G 
Because the One who hears you when you pray
     F                                    
Is the One who's there beside you
    D  
And He'll never walk away

Chorus repeat

Chorus repeat with these chords
        G D# Bb  
Just reach out and He'll reach in
     G D# F 
Take your broken heart and make it whole again
        G D# Bb Bbsus4 Bb  
It don't matter who you are or where you've been
      F D# Bb 
Just reach out, and He'll reach in

Outro :  Bb F D# G F    keep playin that

Grave chords – Don Moen

 Dm Bbmaj7 
There's a step that we all take alone,
       Cmaj7 C6 A 
an appointment we have with the great unknown,
        Dm Bbmaj7 
like a vapor this life is just waiting to pass,
          Cmaj7 C6 A 
like the flowers that fade, like the withering grass,
     Dm Bbmaj7 
But life seems so long and death so complete &
     Cmaj7 C6 A 
the grave an impossible portion to cheat,
     Dm Bbmaj7 
but there is One who has been there & still lived to tell,
          Cmaj7 C6 A  
There is One who has been thru both Heaven & Hell,
         Dm Cmaj7 C6 
and the Grave will come up empty handed that day,
 F G 
Jesus will come and steal us away

Chorus:
 C                                     GaddD
Where is the sting, tell me where is the bite?
 C6                                           GaddD
When the Grave Robber comes like a thief in the night,
 C                                      GaddD
Where is the victory, where is the prize?
 C6                               GaddD              C6 
When the Grave Robber comes and death finally dies

Many still mourn, many still weep for those that they love who have 
fallen asleep,
But we have this hope tho our hearts may still ache,
just one shout from above & they all will awake
and in the reunion what Joy we will see, Death will Be swallowed in sweet 
Victory
(CHROUS)
When the last enemy is gone , from the dust will come a song,
those asleep will Be awakened, not a one will be forsaken
He will wipe away our tears, He will steal Away our fears
there will be no sad tomorrow,there will be no pain, no sorrow
(CHORUSx2)

Road Zion chords – Don Moen

 ERSE 1:
 Fm Bbm 
There is a way that leads to life.
              C# D# Fm 
The few that find it never die.
 Fm Bbm 
Past mountain peaks graced white with snow,
               C# D# Fm 
The way grows brighter as it goes.

CHORUS:
            D# Cm Fm 
There is a road inside of you.
           Bbm Cm Fm 
Inside of me there is one too.
    Cm D# Cm Fm 
No stumbling pilgrim in the dark.
     Cm Bbm Cm Fm 
The road to Zion's in your heart.
     Cm Bbm Cm D# Fm 
The road to Zion's in your heart.

 
VERSE 2:
 Fm Bbm 
The river runs beside the road,
             C# D# Fm 
It's waters living as they flow.
 Fm Bbm 
In liquid voice, the water calls.
            C# D# Cm Fm 
On thirsty knees the pilgrim falls.
VERSE 3:
 Fm Bbm 
Sometimes a shadow, dark and cold,
             C# D# Fm 
Lays like a mist across the road.
 Fm Bbm 
But be encouraged by the sight -
                 C# D# Cm Fm 
Where there's a shadow, there's a light. 

KEY CHANGE:  Gm

VERSE 4:
 Gm Cm 
Sometimes it's good to look back down -
               D# F Gm 
We've come so far, we've gained such ground.
 Gm Cm 
But joy is not in where we've been,
              D# F Gm 
Joy is who waiting at the end.


FINAL CHORUS:
 
 Gm Bb Cm Gm 
There is a road inside of you.
           Cm Dm Gm 
Inside of me there is one too.
              Bb Cm Gm 
No stumbling pilgrim in the dark.
             Cm Dm Gm 
The road to Zion's in your heart.
    Cm Bb Cm Gm 
No stumbling pilgrim in the dark.
             Cm Dm Gm 
The road to Zion's in your heart.
            
 Cm Dm Gm  
The road to Zion's in your heart.
   Cm Dm G 
The road to Zion's in........your heart.

For Annie chords – Don Moen

 Bb C F 
No one ever noticed Annie weeping.
 Bb C Dm C Bb 
People all around, but she was all alone.
 Gm C Am Dm 
Mama's got her meetings and Daddy's got his job,
 Bb C Dm C Bb F 
but no one's got the time so Annie's on her own.

 Bb C F 
No one ever knew her desperation.
 Bb C Dm C Bb 
People couldn't hear her cry out silently.
 Gm C Am Dm 
Locked inside the bathroom she grabs a jar of pills.
 Bb C Dm C Bb 
The medicine that cures becomes the poison that kills.

1st CHORUS
==========
 Bb C Dm C Bb F 
And it's too late for Annie. She's gone away for good.
 Bb C Bb C 
There's so much we could tell her and now we wish we could.
              Bb C Dm C F 
But it's too late, it's too late for Annie.

 Bb C F 
Sadness fills the hearts of Annie's family.
 Bb C Dm C Bb 
Daddy tries to comfort Mama uselessly.
 Gm C Am Dm 
They hoped she knew they loved her, but they really didn't know.
 Bb C Dm C Bb 
They just want to know why did their baby go.

2nd CHORUS
========== 
 Bb C Dm C Bb F 
And it's too late for Annie. She's gone away for good.
 Bb C Bb C 
There's so much that we could tell her, and now we wish we could.
          Dm C Dm C  
We would tell her Jesus loves her, tell her Jesus cares.
 Dm C Dm C Bb 
Tell her He can free her and her burdens bear.
              Bb C Dm C F 
But it's too late, it's too late for Annie.

 Bb C F 
If only we'd have known her situation,
 Bb C Dm C Bb 
We'd have tried to stop this useless tragedy.
 Gm C Am Dm 
Annie's lost forever, never to be found.
 Bb C Dm C Bb 
But there are lots of others like her all around.

3rd CHORUS
========== 
 Bb C Dm C Bb F 
And it's not too late for Annie. She could be next to you.
       Bb C Bb C 
Don't miss the chance to tell her before her life is through.
          Dm C Dm C  
We gotta Tell her Jesus loves her, Tell her Jesus cares.
 Dm C Dm C Bb C 
Tell her He can free her and her burdens bear.
 Dm C Dm C 
Tell her Jesus loves her, Tell her Jesus cares.
 Dm C Dm C Bb C 
Tell her He can free her and her burdens bear.
               Dm C Dm C 
You've got to tell her Jesus loves