Tag: drive

Trying To Drive chords by Zac Brown Band

Chords included: G , F , C , D , Em , B , Bm , Db

[Intro]
Chord progression:  G , F , C , C

[Verse 1]
             G                      F          C
You know I'm never right if I'm not right with you
    G                       F        C
And no one can make me feel like you do
           G                        F      C
I'd be the one to lay my heart down on the line
   G                                F        C
So come and save me darlin' love me one more time

[Pre-Chorus]
D   C                 G
Cuz you're not always right
G       Em             D
Oh, and I'm not always wrong
D    C                G
It's not like I don't try
G         D
This is where we belong

[Chorus]
G       D
One way,
Em                 C
Everything's gotta be your way
G           D            C
But darlin', I'm on your side
           G          Bm          B                    Db
Cuz it's a one wheel, four hands, two hearts tryin' to understand
C                      D
How we gonna get there
(Rest)                     G          F  C
When we're both tryin' to drive (2x)

[Verse 2]
    G                       F      C
You might be right, and I'm out of touch
        G                         F            C
I guess everything I have to give just ain't enough
    G                             F         C
I'm trying to make the most outta what it's not
    G                                  F       C
Cuz darlin' I can't give you somethin' I ain't got

[Pre-Chorus]
D   C                 G
Cuz you're not always right
Em             D
I'm not always wrong
D    C                G
It's not like I don't try
G         D
This is where we belong

[Chorus]
G       D
One way,
Em                 C
Everything's gotta be your way
G           D            C
But darlin', I'm on your side
G          Bm          B                    Db
One wheel, four hands, two hearts tryin' to understand
C                      D
How we gonna get there
D                         Em
When we're both tryin' to drive

[Bridge]
Em                     C
I can feel it under my seat
C                      G
On the sideline of my life
G                         D
Watching rain fall to the ground
D                       G   Em
To the beat of the same old fight

Em                        C
Every song is brewing this war
C                             G
When we find ourselves in the thick of it
G                            D          D          D
Give a little bit, and we'll fly, we'll fly, we'll fly

[Chorus]
G       D
One way,
Em                 C
Everything's gotta be your way
G           D            C C
But darlin', I'm on your,
C
Darlin' I'm on your side
G          Bm          B                    Db
One wheel, four hands, two hearts tryin' to understand
C
How we gonna get there
G          Bm          B                    Db
One wheel, four hands, two hearts tryin' to understand
C                      D
How we gonna get there
D                 G     F  C
We both tryin' to drive
C         G      F  C
Tryin' to drive

[Outro]
Chord progression: G , F , C , C

10 Years Of Parkway Drive album Tabs – Parkway Drive

 10 Years of Parkway Drive
Guitar Medley by CobjayGuitar 

Hey guys, this is the tab that directly relates to the Parkway Drive medley I made. 
So far I have over 35,000 views on it so I thought I'd tab it for whoever is interested! 

Cheers, Cobjay


0:10 Horizons
(Finger-picked)- Played 5 times

C#|--7-----7-----10-----2-----2-----5-----3-----3-----7----5-----7-----2---|
G#|----0-----0------------0-----0-----------0-----0----------0-----0-------|
E |------0-----0------------0-----0-----------0-----0----------0-----------|
B |--------------------------------------------------------------------0---|
F#|--7-----------10-----2-----------5-----3-----------7----5---------------|
B |------------------------------------------------------------------------|


Guitar 2 (Starts after the second repetition)
C#|-------------------------------------------------------|
G#|-------------------------------------------------------|
E |--------------------------------------------4--5--7----|
B |--2-----2-------------------------------2---4--3--7----|
F#|--2-----2-------------------------------2---2--3--5----|
B |--2-----2-----\\\pick-slide ------------2--------------|

0:49 Five Months
C#|----------------------------------------|
G#|----------------------------------------|
E |------7-10-9------------7-10-9----7-----|
B |-------------10-0-8---8--------10-------|
F#|--8-8-----------------------------------|
B |--8-8-----------------------------------|
     * *           *

C#|----------------------------------------|
G#|----------------------------------------|
E |------7-10-9-------10-9-7---9-7~--------|
B |-------------10-----------0-------------|
F#|--8-8-----------------------------------|
B |--8-8-----------------------------------|
     * *                     *

C#|----------------------------------------|
G#|----------------------------------------|
E |------7-10-9------------7-10-9----7-----|
B |-------------10-0-8---8--------10-------|
F#|--8-8-----------------------------------|
B |--8-8-----------------------------------|
     * *           *

C#|----------------------------------------|
G#|----------------------------------------|
E |------7-10-9-------10-9-7---10-10-7~----|
B |-------------10-----------0-------------|
F#|--8-8-----------------------------------|
B |--8-8-----------------------------------|
     * *                     *



1:01 Boneyards
C#|------------------------------------------------------|
G#|------------------------------------------------------|
E |------------------------------------------------------|
B |------------------------------------------------------|
F#|--0--0-0000-00--00-0-0-0--0000-00--0--0-0000-00-------|
B |--0--0-0000-00--00-0-0-0--0000-00--0--0-0000-00-------|
     *  * **** **  ** * * *  **** **  *  * **** **

C#|----------------------------------------|
G#|----------------------------------------|
E |----------------------------------------|
B |----------5--------8p7p5---5------------|
F#|--0h5h7h8---8p7p5--------8---8p7p5------|
B |----------------------------------------|

C#|------------------------------------------------------|
G#|------------------------------------------------------|
E |------------------------------------------------------|
B |------------------------------------------------------|
F#|--0--0-0000-00--00-0-0-0--0000-00--0--0-0000-00-------|
B |--0--0-0000-00--00-0-0-0--0000-00--0--0-0000-00-------|
     *  * **** **  ** * * *  **** **  *  * **** **

C#|----------------------------------------|
G#|----------------------------------------|
E |----------------------------------------|
B |----------5--------8p7p5---5------------|
F#|--0h5h7h8---8p7p5--------8---8p7p5------|
B |----------------------------------------|

C#|------------------------------------------------------|
G#|------------------------------------------------------|
E |------------------------------------------------------|
B |------------------------------------------------------|
F#|--0--0-0

Wreckage Tabs – Parkway Drive V5

 ^^^^^^^^^^^^^^^^^^^^^^^^^^^^^^^^^^^^^^^^^^^^^^^^^^^^^^^^^^^^^^^^^^^^^^^^^^^^^^^
                          WRECKAGE ~ PARKWAY DRIVE
^^^^^^^^^^^^^^^^^^^^^^^^^^^^^^^^^^^^^^^^^^^^^^^^^^^^^^^^^^^^^^^^^^^^^^^^^^^^^^^

                           (Tuning) B,F#,B,E,G#,C#
   

  (Intro) 

c#|-----------------------|
G#|-----------------------|
E |-----------------------|
B |-----7h8p--------------|  x4       
F#|--0---------8----10----|
B |--0---------8----10----|

c#|-----------------------------------|
G#|-----------------------------------|
E |-----------------------------------|
B |-----7h8p-------7h8p--------8p7----|  x4
F#|--0---------8----------10----------|
B |--0---------8----------10----------|

  (Chorus)
                   "CHISH"
c#|--------------------------------------------|
G#|--------------------------------------------|
E |--------------------------------------------|
B |---------3-------------3----------3---------|  x3
F#|--0---5-----5---3---5-----5---5------5------|
B |--0-------------3-------------5-------------|

c#|--------------------------------------------|
G#|--------------------------------------------|
E |--------------------------------------------|
B |---------3-------------3--------------------|  
F#|--0---5-----5---3---5-----5---5-0-5-8-7-0---|
B |--0-------------3-------------5-0-5-8-7-0---|

  (Verse)

c#|---------------------------------------------------------------|
G#|---------------------------------------------------------------|
E |---------------------------------------------------------------|
B |---------------------------------------------------------------|
F#|--0-0-0-0-5-0-5-0-0-0-0-5-8-77770-0-0-0-0-5-0-5~-5~-55887770---|
B |--0-0-0-0-5-0-5-0-0-0-0-5-8-77770-0-0-0-0-5-0-5~-5~-55887770---|
     * * * *   *   * * * *           * * * *   *       
c#|---------------------------------------------------------------|
G#|---------------------------------------------------------------|
E |-------------------------------------------------5----9--------|
B |-------------------------------------------------x----x--------|
F#|--0-0-0-0-5-0-5-0-0-0-0-5-8-77770-0-0-0-0-5-0-0--3----7--------|
B |--0-0-0-0-5-0-5-0-0-0-0-5-8-77770-0-0-0-0-5-0-0----------------|
     * * * *   *   * * * *           * * * *   * *
c#|---------------------------------------------------------------|
G#|---------------------------------------------------------------|
E |---------------------------------------------------------------|
B |---------------------------------------------------------------|
F#|-70-0-0-0-0-5-0-5-0-0-0-0-5-8-77770-0-0-0-0-5-0-5~-5~-55887770-|
B |-70-0-0-0-0-5-0-5-0-0-0-0-5-8-77770-0-0-0-0-5-0-5~-5~-55887770-|
       * * * *       * * * *           * * * *   *
c#|---------------------------------------------------------------|
G#|---------------------------------------------------------------|
E |-------------------------------------------------5----9--------|
B |-------------------------------------------------x----x--------|
F#|--0-0-0-0-5-0-5-0-0-0-0-5-8-77770-0-0-0-0-5-0-0--3----7-----/--|
B |--0-0-0-0-5-0-5-0-0-0-0-5-8-77770-0-0-0-0-5-0-0-------------/--|
     * * * *       * * * *           * * * *   * *
  (Chorus)

c#|--------------------------------------------|
G#|--------------------------------------------|
E |--------------------------------------------|
B |---------3-------------3----------3---------|  x4
F#|--0---5-----5---3---5-----5---5------5------|
B |--0-------------3-------------5-------------|

  (Riff 1)

c#|----------------------------|
G#|----------------------------|
E |----------------------------|
B |-------7h8p-----------------|  x4       
F#|--0000-------8--0000--10----|
B |--0000-------8--0000--10----|
     ****          ****
  (Riff 2) Tremolo picking

c#|----------------------------|
G#|----------------------------|
E |----------------------------| 
B |----------------------------|       
F#|----------v3-------v5-------|
B |--v2------------------------|

c#|-------

The Ghosts Of Beverly Drive Tabs by Death Cab For Cutie V2

 This is being posted the day after it came out on Spotify!
Standard tuning (EADGBe).
I'm not sure of the chords, I might figure them out.
This is a great song from the self-named single!
If you have any questions, email me at winslowjisawesome (please tell me what I did wrong)!
The part that goes "I don't know why I don't know why" is really hard to hear, but it sounds good if you
 just do the solo.

Intro

E|-------------------------------------|
A|-------------------------------------|
D|-------------------------------------|
G|-------------------------------------|
B|0-0-0--0-0-0--0-0--0-0-0--0-0--------|
E|------------------------------0-1-0-1|

Verse x2
E|-----------------| x3
A|-----------------|
D|-----------------|
G|-----------------|
B|0-0-0--0-0-0--0-0|
E|-----------------|

E|--------------------|
A|--------------------|
D|--------------------|
G|--------------------|
B|0-0-0--0-0-0--------|
E|-------------0-1-0-1|

Solo
E|--------------------|
A|5-5-5-5-5-5--3-2----|
D|--------------------|
G|--------------------|
B|--------------------|
E|--------------------|

E|--------------------|
A|5-5-5-5-5-5--7-2----|
D|--------------------|
G|--------------------|
B|--------------------|
E|--------------------|

E|---------------------------------------------|
A|5-5-5-5-5--5-3-2-2---------------------------|
D|-------------------2-2-2-2-2--2--2--2--4-4-4-|
G|---------------------------------------------|
B|---------------------------------------------|
E|---------------------------------------------|

E|--------------------|
A|5-5-5-5-7-3-5-2-----|
D|--------------------|
G|--------------------|
B|--------------------|
E|--------------------|

E|--------------------|
A|5-5-5-5-5--7-2------|
D|--------------------|
G|--------------------|
B|--------------------|
E|--------------------|

E|--------------------|
A|5-5-5-5-7-3-5-2--2--|
D|--------------------|
G|--------------------|
B|--------------------|
E|--------------------|

E|---------------------------|
A|---------------------------|
D|-2-2-2-2-2--2--2--2--4-4-4-|
G|---------------------------|
B|---------------------------|
E|---------------------------|

Verse x2
E|-----------------| x3
A|-----------------|
D|-----------------|
G|-----------------|
B|0-0-0--0-0-0--0-0|
E|-----------------|

E|--------------------|
A|--------------------|
D|--------------------|
G|--------------------|
B|0-0-0--0-0-0--------|
E|-------------0-1-0-1|

Solo
E|--------------------|
A|5-5-5-5-5-5--3-2----|
D|--------------------|
G|--------------------|
B|--------------------|
E|--------------------|

E|--------------------|
A|5-5-5-5-5-5--7-2----|
D|--------------------|
G|--------------------|
B|--------------------|
E|--------------------|

E|---------------------------------------------|
A|5-5-5-5-5--5-3-2-2---------------------------|
D|-------------------2-2-2-2-2--2--2--2--4-4-4-|
G|---------------------------------------------|
B|---------------------------------------------|
E|---------------------------------------------|

E|--------------------|
A|5-5-5-5-7-3-5-2-----|
D|--------------------|
G|--------------------|
B|--------------------|
E|--------------------|

E|--------------------|
A|5-5-5-5-5--7-10-----|
D|--------------------|
G|--------------------|
B|--------------------|
E|--------------------|

E|--------------------|
A|5-5-5-5-7-3-5-2--2--|
D|--------------------|
G|--------------------|
B|--------------------|
E|--------------------|

E|----------------------------|
A|----------------------------|
D|-2-2-2-2-2--2--2--2--4-4-4--|
G|----------------------------|
B|----------------------------|
E|----------------------------|

Drum solo

Chorus x4(play solo, it sounds good)

Very last time ends like this:

E|-0-0-3-0-3-0-3-0----|
A|--------------------|
D|--------------------|
G|--------------------|
B|--------------------|
E|--------------------|

Please email me so I can make this perfect! (Or comment here! |)
                                   

Harbor Drive Hookup – Chasin Game chords

 Chasin' Game- Harbor Drive Hookup

 Am 

VERSE 01
 Am 
The alarm goes off, I'm on the run
 C 
I'll be climbing, before the sun
 Dm 
At first blues, while the rest of em snooze
 Em Em7 
I'll be waiting, for one to come through

INTRO

VERSE 02
I mask my scent, I play the wind
I'll be damned if I get scented again
I range my shots, I check my lanes
Let it be known, that I ain't playin' cause 

CHORUS
 Am C 
We're tracking bucks. We're takin' ducks
 Dm Em Em7 
It don't matter get in the truck
 Am C 
The feelings the same when we're takin' aim
 Dm Em           
So grab your turkey call, it's time for chasin' game

INTRO

VERSE 03
I've been on stand for over an hour
The sun's up now and I can feel it's power
Under new ligh the world keeps changin'
I keep my cool as the buck fever's ragin'

INTRO

VERSE 04
As last light approaches the leaves start to rustle
I take a deep breath and I don't move a muscle
The bruiser comes in now it's do or die
I draw my bow and I let the arrow fly

CHORUS

Harbor Drive Hookup – Aint Been A Day Yet chords

 Ain't Been a Day Yet- Harbor Drive Hookup

INTRO
 G C D C G 

VERSE 01
              G 
Ain't been a day yet
                    C 
And I spent my paycheck
       D 
on smoke and wine
        C G 
and things that make me feel fine.

I aint told my wife yet
I bet she'll throw a big fit
I can already hear her
yellin' my name

 G C D C G 

VERSE 02
What's done is done now
I wouldn't change it anyhow
It's just the way I am
The way I live

I need a vacation
from this occupation
and drinkin myself blind 
most every night

 G C D C G 

VERSE 03
Take me back to the good days
to the place where my mind will stay
that's the only way I'll find
my place in life

Aint been a day yet
since I spent my paycheck
Lord I hope she don't leave me for good.

Harbor Drive Hookup – Velvet Blue Sky chords

 Velvet Blue Sky, Written by Harbor Drive Hookup   10.7.14

3/4 Time, Country Style Strum. The same pattern repeats throughout.

Capo 5
 G C D G 

No Capo
 C F G C 

CHORUS 01
Remember that night
a long time ago
alone, just you and I

If there were ever a time
When my heart felt alive
It was under that velvet blue sky.

VERSE 01
Hand in hand
Together my love
Wishing we were free

Still I walk on without you
My heart it longs for you
Knowing our love will never be

CHORUS 02
Play me that tune
you wrote for me
And I’ll write a sweet song for you

If there were ever a time
When my heart felt alive
It was under that velvet blue sky

VERSE 02
I’ll never get over 
The thought of getting older
If getting older, well it ain’t with you

Oh the times may get though
but I aint giving up
So I promise you my love today

VERSE 03
Take me back
to the place that I love
It seems so far far away.

Like an angel I shine
To light your way
anywhere I'd go with you

CHORUS 01
Remember that night 
a long time ago
Alone just you and I

If there were ever a time
When my heart felt alive
It was under that velvet blue sky.

Harbor Drive Hookup – That Old Plow chords

 That Old Plow, Written by Harbor Drive Hookup

INTRO
 G C Em D 

VERSE 01
 G 
I had no luck at deer camp
     C 
Not feelin' all that proud
      Em 
They said the storms a comin'
       D 
So we headed back to St Cloud
           G 
They said 14 inches comin'
          C 
Well I'd heard it all before
          Em 
But When all was said and done
         D 
I could barely open the door

CHORUS
         G 
And the snow fell down
        Bm 
And it blanketed the ground
     C 
You know it didn't stop
             D 
Till it had covered the whole town
          G 
Still we stay in Minnesota
    Bm 
At least that's what we vow
 C 
So break out the shovels
     D 
And send in that old plow

 G C Em D 

VERSE 02
 G C Em D 
That old plow she's rusty
but she always gets it done
Plowin' night and day
Under moonlight or the sun
That old plow she's trusty
She never fails to run
All the children wave
as they play and have their fun

CHORUS

SOLO
 G C Em D  x2 

CHORUS

Harbor Drive Hookup – Slip Away chords

 Slip Away, Written by Harbor Drive Hookup


VERSE 01
 C Em G Am Em 
I almost let it slip away
I was gone and on my way
I was blinded by something fake
headed home on that highway

I said it was too far to drive
Ridin' down I35
I was too dead inside
Not livin' like I was alive

INSTR HOOK
 C Em C Em C G Am Em 

VERSE 02
 C Em G Am Em 
You wouldn't let it slip away
Wouldn't let me leave that way
You just reached out to say
I feel something today

INSTR HOOK
 C Em C Em C G Am Em 

VERSE 03
 C Em G Am Em 
I said I'd give it a try
The way you made me feel inside
It left me with nothing to hide
and so I made you my bride

INSTR HOOK
 C Em C Em C G Am Em 

VERSE 04
 C Em G Am Em 
I almost let it slip away
I was gone and on my way
You wouldn't let it slip away
Wouldn't let me leave that way

INSTR HOOK
 C Em C Em C G Am Em

Harbor Drive Hookup – Rollin Coal chords

 Rollin' Coal, Written by Harbor Drive Hookup

INTRO
 Em Em G Em C D Em Em Am Em C Bm 

CHORUS
 Em 
Rollin Coal
            Em G 
That's the only life he'll know
 Em 
Pullin' a load
          C D 
Down the Highways and back roads
 Em 
He goes it alone
          Em Am 
He knows more than the map knows
 Em 
Rollin Coal
           C Bm 
Where you need him that's he goes

VERSE 01
 Em G D C Em 
Rollin Coal Down 94
He feels like he's been here before
He's traveled every road across the map

Slowin low as he passed the toll
Creepin past that state patrol
He knows every stakeout every trap

CHORUS

VERSE 02
Rollin Coal Down 70 
He's high in Colorado feeling heavenly
If he ever settles down that's where he's at

He loves California Loves Tennessee
Comes from Minnesota Originally
But Edwards that is where he'll hang his hat

CHORUS

SOLO
 Em G D C Em 

CHORUS

Harbor Drive Hookup – Never Look Down chords

 Never Look Down, Written by Harbor Drive Hookup

 G Em Bm C 

CHORUS
 G 
You walk the rope but you never look down
 Em 
I see you walkin' everyday down town
 Bm 
I see a smile, but never a frown
 C 
There's no complaints, never a sound

 G 
You give me hope when I hit the ground
 Em 
Pick me up when I'm sorrow bound
 Bm 
If I'm depressed you still want me around
 C D 
You bring me back, and that's what I found


VERSE 01
 G Bm 
Strong she stays, along the way
 C G 
You wouldn't even know if she had a bad day
 G Bm 
She keeps her cool, she's nobody's fool
 Em C 
She ain't livin' under nobody's rule

     G Bm 
She knows what to say when the sky turns gray
           C G 
Makes the clouds all clear for the sunshine's rays
 G Bm 
Nothin' but true, she's got nothing to prove
     C D 
She keeps me company when I've got nothing to do

CHORUS

G (strum once, ring out)

Harbor Drive Hookup – Hey Pretty Mama chords

 Hey Pretty Mama, Written by Harbor Drive Hookup

INTRO
 G Am C D G 

VERSE 01
 G  
Hey Pretty Mama lookin' back at me
 Am 
When you look back do you like what you see?
 C D G 
Maybe you should stick around a while

Hey Pretty Mama took a like to me
Do you wanna try to make something to keep?
Hey Hey Hey you should stick around

CHORUS
         Em Bm 
But you don't need me, like I need you
    C G 
To keep me from drinkin' and gettin' the blues
 Em Bm 
Hey pretty mama would you stay with me
    C D D7 
To keep me from sinking through

 G Am C D G 

VERSE 02
Hey Pretty Mama do you still love me
Is it still something, that you wanna keep?
I pray every night you'll stick around  

CHORUS

 G Am C D G 

VERSE 03
Hey Pretty Mama now you married me
When you look back do you like what you see?
Do you wanna stick around a while?

CHORUS

 G Am C D G

Harbor Drive Hookup – Feelin Blue chords

 Feelin' Blue- Harbor Drive Hookup

 Am C Dm E5 G5  

VERSE 01
 Am C 
Today's just one of those days
                Dm E5 G5 
I hate everyone
 Am C 
I'll drive my car right off 
                 Dm E5 G5 
the road for fun

Will I make it till
the day is done?
If I don't, please
don't tell no one

CHORUS
 Am C 
I will make it and when I do
 G Am 
To myself I will always be true
 Am C 
I always knew that I would make it through
 G Am 
but sometimes I forget when I'm feeling blue
 Am C 
I will make it and when I do
 G Am 
To myself I will always be true
 Am C 
I always knew that I would make it through
 G Em Am 
but sometimes I forget when I'm feeling blue

VERSE 02
Today's just one of those days
I can't see no sun
The day seemed lost long
before it'd begun
days like these were made
for shooting guns
I'd end it all if I didn't
love someone

CHORUS
End

Harbor Drive Hookup – Engaged By The Harbor chords

 Engaged By The Harbor, Written by Harbor Drive Hookup

INTRO
 Am Dm G C Em  x2

VERSE 01
 Am Dm 
We got engaged by the Harbor
 G C Em 
But we met at a dive bar
Married at Graysolon
It was always a drive far far

From where I wanna be in the clouds and the breeze
take me to the lake or the trails in the trees
Cuz I wanna live free just my family and me
Move into the woods time to leave these streets

INSTR HOOK
 F Dm Em Am Em F Dm Em  0-2-4 Run on E String

VERSE 02
We took a ride on the Vista Queen
It was just like a movie scene
Right under the lifted bridge
Down the canal and right between

The sports garden and aquarium
and the buoy where our love arose
Then on Harbor Drive in late July
That would be the spot where I'd propose

INSTR HOOK
 F Dm Em Am Em F Dm Em  0-2-4 Run on E String

VERSE 03
We got engaged by the Harbor
But we met at a dive bar
Married at Graysolon
It was always a drive far far

From where I wanna be in the clouds and the breeze
take me to the lake or the trails in the trees
Cuz I wanna live free just my family and me
Move into the woods time to leave these streets

INSTR HOOK
 F Dm Em Am Em F Dm Em  0-2-4 Run on E String
 Am  (Single Strum, let ring)

Just Drive chords – I The Mighty

 One of my most favorite underrated songs by one of my most favorite bands. I decided to get together
a chord version of this song since the tab is already up here. A big thanks for them for figuring out the verse
part. Questions comments or corrections, voice at the bottom. Thank you! 

        A5   Eno5/G#   G5   Dno5/F#  F C E 
Eb|-----------------------------1------------------
Bb|-----------------------------1-----1-----------
Gb|-----------------------------2-----0-----1-----
Db|-----7-----6-----5-----4-----3-----2-----2-----
Ab|-----7-----7-----5-----5-----3-----3-----2-----
Eb|-----5-----4-----3-----2-----1-----------0-----





    A5                  Eno5/G#
Well I’ve got some pills that I’m taking,
 G5               Dno5/F#                   F C E 
But I’m waiting to see just how far I can go on my own.
     A5           Eno5/G#            G5                  Dno5/F#         F C E 
And I wanna know if you’re leaving cause this evening I’ll be far from home. Far from home.
A5               Eno5/G#
Make the way past half moon bay
         G5                    Dno5/F#            F C E        
and I’ll let you know when we stop to stretch our legs or fill up the tank.
     A5              Eno5/G#                G5                Dno5/F#
We’re on a search for something more than we even knew we were looking for.
    F C E 
So please, could you lead the way.

 F C 
 That’s right. Just drive.
 G Am F 
 I need nothing more than a ride.
 C E 
Lets take time and waste it.
 F C G Am F 
 Eyes on the horizon and lets see if we beat the sun,
         C E 
‘fore it breaks through and blinds.

    A5                  Eno5/G# 
This plot needs a twist. Some dramatics.
G5                     Dno5/F#          F
Pull the chord from the wall and hit eject.
 C E   
 Make this car flip a bitch.
     A5                   
And tear up, tear up that map.
    G5                    Dno5/F#           F
Oh, we don’t need that, no we don’t need anything.
 C E 
 Spare the money for gas.

 F C 
 That’s right. Just drive.
 G Am F 
 I need nothing more than a ride.
 C E 
Lets take time and waste it.
 F C G Am F 
 Eyes on the horizon and lets see if we beat the sun,
         C E 
‘fore it breaks through and blinds.

 Am Dm C 
Stay if you will, but I’m gonna run.
          G Am E 
I’m gonna run for the hills.
 Am Dm C 
Take, take these pills and hide them away.
          G Am          
Hide them away in the hills.
 Am E      
Oh, this is my stop. It’s where I get off.
 Am E 
I’ll see you boys at home.
 Am E 
I just think I need a day to be totally lost
 Am E 
 and totally scared.

 F C 
 That’s right. Just drive.
 G Am F 
 I need nothing more than a ride.
 C E 
Lets take time and waste it.
 F C G Am F 
 Eyes on the horizon and lets see if we beat the sun,
         C E 
‘fore it breaks through and blinds.

          F 

Daylight intro Tabs by Remedy Drive

 e|------------------------------------------------------------------|
B|------------------------------------------------------------------|
G|----12-11-12-14-------12-11-9-------------------------------------|
D|-12---------------(12)--------12----------------------------------|
A|------------------------------------------------------------------|
E|------------------------------------------------------------------|

Better Than Life intro Tabs by Remedy Drive

 |---------------------------------------------------------------------|
|-(14)-15h-14h-12h-------(14)-15h-14h-12h-----------------------------|
|------------------14-12------------------14-11---14-14---11----------|
|------------------------------------------------------------14-12-14-|
|---------------------------------------------------------------------|

Drift Drive Tabs by The Antlers V2

 I saw a version of this song on the internet, wasn't very satisfied so here's how I play 
it. Feel free to submit corrections, if it's needed. Cheers! :)

e|-/10-10-10-7-10b-7---------------------------------------------------------|
B|-------------------/12-12-12-10-12b--10*-----------------------------------|
G|-----------------------------------------12--------------------------------|
D|---------------------------------------------------------------------------|
A|---------------------------------------------------------------------------|
E|---------------------------------------------------------------------------|

So this is basically what goes on for about the whole song with slight variations that I 
still haven't figured out yet.

Drive chords – Warpaint

 Chords:  C#m ,  E  and  A  
Sorry if it's not 100% correct

 C#m E 
I could drive
              C#m 
Drive myself crazy
 E C#m 
But this time
           E 
I want to listen
           C#m 
I want to stay here
             E 
Inside this vision
                   C#m 
I see them at the take
                           E 
It doesn't mean anything
                                    C#m 
You gotta get your back up off the wall
     E C#m 
And fall, to the other side

          E                   
Into the eye, into the storm
          A C#m 
Into the eye, into the storm
          A C#m 
Into the eye, into the storm
          A C#m   
I paint my eyes into the storm
           A 
I paint my eyes

 C#m E 
Sitting alone and I'm waiting, all by myself
          C#m            
When the time goes slow
              E                          
And I am not waiting, for somebody else
       C#m                                    
And I wanna believe it, I want it, I need it
    E C#m       
I guess when I looked at the truth I was surprised
              E       
To find this feeling
            A C#m  
That I'm a lucky child

(Into the eye, into the storm
Into the eye, into the storm)
     E C#m  
Pushing you

(Into the eye, into the storm)
       E C#m 
I'm a lucky child

(Into the eye, into the storm)
       E C#m 
I'm a lucky child

(Into the eye, into the storm)