Tag: Drums

Trumpets chords – Jason Derulo V5

 Capo on 5th
Standard tuning


       G C Em D 
Every time that you get undressed
    G C Em D 
I hear symphonies in my head
   G C Em D G 
I wrote this song just looking at you oh, oh
         C Em       
Yet the drums they swing low
         D G           
And the trumpets they go
         D G     
And the trumpets they go
         D              
Yeah the trumpets they go
       G C Em D 
Da da, da ra ra da, da, da
       G C Em D 
Da, ra, ra, ra, da, da
       G C Em D 
Da da, da ra ra da, da, da
       G C Em D 
Da, ra, ra, ra, da, da
       G C Em D 
They go


[Verse 1:]
       G C       
Is it weird that I hear
 Em D 
Violins whenever you’re gone
 D G 
Whenever you’re gone
       G C       
Is it weird that your ass
 Em D 
Remind me of a Kanye West song?
 D G 
Kanye West song

       G C    
Is it weird that I hear
 Em D 
Trumpets when you’re turning me on?
 D G 
Turning me on
       G C   
Is it weird that your bra
 Em D 
Remind me of a Katy Perry song?


       G C Em D 
Every time that you get undressed
    G C Em D 
I hear symphonies in my head
   G C Em D G 
I wrote this song just looking at you oh, oh
         C Em       
Yet the drums they swing low
         D G           
And the trumpets they go
         D G     
And the trumpets they go
         D              
Yeah the trumpets they go

       G C Em       
Da da, da ra ra da, da, da
       G C Em       
Da, ra, ra, ra, da, da
       G C Em       
Da da, da ra ra da, da, da
       G C Em       
Da, ra, ra, ra, da, da
       G        
They go


[Verse 2:]
                G C       
(Damn) Is it weird that I hear
 Em D 
Angels every time that you moan?
 D G 
Time that you moan
         G C    
Is it weird that your eyes
 Em D 
Remind me of a Coldplay song?
 D G 
Coldplay song

       G C    
Is it weird that I hear
 Em D 
Trumpets when you’re turning me on?
 D G 
Turning me on
       G C   
Is it weird that your bra
 Em D 
Remind me of a Katy Perry song?


       G C Em D 
Every time that you get undressed
    G C Em D 
I hear symphonies in my head
   G C Em D G 
I wrote this song just looking at you oh, oh


       G C Em D 
Every time that you get undressed
    G C Em D 
I hear symphonies in m

Trigger Hippie chords – Morcheeba

 Intro:
 Gm F 

Verse:
 Gm Bb F C  
Tune in, drop out of love,
Pull the trigger, I'm a hippie,
So said a truth, and blood,
Alive and well,
You push the buttons.

Standing in line of fire,
For the whole,
My soul,
Step codes,
The drums,
And sing,
Love the children,
Learn to live with everything.

Chorus:
 Gm Bb C Gm 
Love love love, i'm a trigger hippie, yeah
 Gm Dm Bb Ab Gm Bb 
Love love love, we're trigger hippies, yeah.

Zoom in, cut out at sound,
Make it feel so trippy
Hung up, let down to ground,
Forget the kill it's far to sticky

Love love love, i'm a trigger hippie, yeah
Love love love, we're trigger hippies, yeah.

Jealous Again chords – Black Crowes

 D  
Cheat the odds that made you 

Brave to try to gamble at times 

Well I feel like dirty laundry 

Sending sickness on down the line 

Tell you why, 'cause I'm  

 D C D  
Jealous, jealous again 
 B D G  
Thought it time I let you in 
                D C D  
Yeah, I'm jealous, jealous again 
 B D G  
Got no time, baby 

 D  
Always drunk on Sunday 

Try'n to feel like I'm at home 

Smell the gasoline burning 

Boys out feeling nervous and cold  

 D C D  
Jealous, jealous again 
 B D G  
Thought it time I let you in 
                D C D  
Yeah, I'm jealous, jealous again 
 B D G  
Got no time, baby 



 C G  
Stop, understand me  
 C G  
I ain't afraid of losing face 
 C G  
Stop, understand me 
 C G D  
I ain't afraid of ever losing faith in you 

 D  
Never felt like smilin'  

Sugar wanna' kill me yet? 

Find me loose lipped and laughin'  

Singin' songs ain't got no regret  yeah, yeah 


 D C D  
Jealous, jealous again 
 B D G  
Thought it time I let you in 
                D C D  
Yeah, I'm jealous, jealous again 
 B D G  
Got no time, baby 

 C G  
Stop, understand me  
 C G  
I ain't afraid of losing face 
 C G  
Stop, understand me 
 C G D  
I ain't afraid of ever losing faith in you 


BAND CUTS OUT LEAD GUITAR LICK ONLY 


 D  
Don't you think I want to 

Don't you think I would 

Don't you think I'd tell you baby 

If I only could 

Am I acting crazy 

Am I just too proud 
             {________________DRUMS CUT IN 
Am I just plain lazy 
 D ____________________________BAND COMES IN ON D  
Am I, Am I, Am I, ever 


 D C D  
Jealous, jealous again 
 B D G  
got no time I let you in 
               D C D  
Yeah, I'm jealous, jealous again 
 B D G  
_________________________NO VOCAL 


 D C D  
Jealous, jealous again 
 B D G  
Thought it time I let you in 
                D C D  
Yeah, I'm jealous, jealous again 
 B D G  

_________________________ NO VOCAL 

4 MEASURES OF VARIATIONS IN D  SCAT VOCAL

Cherry Pie chords – Warrant

 Warrant - Cherry Pie
From the  Cherry Pie (1990)
Comment for any corrections and please rate


   E G 
She's my cherry pie
  A D 
Cool drink of water such a sweet surprise
  E G 
Tastes so good makes a grown man cry
               A E 
Sweet Cherry Pie, yeah,

 A E 
 Well, swingin' on the front porch, 
  
Swingin' on the lawn, swingin' where we want 
              A 
'Cause there ain't nobody home
   E               
Swingin' to the left and swingin' to the right 
                                   A E 
If I think about baseball, I'll swing all night yeah 

 A E 
 Swingin' in the living room, swingin' in the kitchen 
                                  A 
Most folks don't 'cause they're too busy bitchin' 
   E 
Swingin' in there 'cause she wanted me to feed her 
                                A 
So I mixed up the batter and she licked the beater 

 A 
I scream you scream 
    D 
We all scream for her 
  F 
Don't even try 'cause 
      G 
You can't ignore her 

   E G 
She's my cherry pie 
  A D 
Cool drink of water, such a sweet surprise 
  E G 
Tastes so good, make a grown man cry 
               A 
Sweet cherry pie oh yeah 
   E G 
She's my cherry pie 
         A D 
Put a smile on your face, ten miles wide 
  E G 
Looks so good, bring a tear to your eye 
               A 
Sweet cherry pie yeah


Swingin' to the drums, swingin' to guitar, swingin' to the bass 
         A 
In the back of my car 
 E 
Ain't got money, ain't got no gas but we'll get where 
                     A 
We're goin' if we swing real fast 

 A 
I scream you scream 
    D 
We all scream for her 
  F 
Don't even try 'cause 
      G 
You can't ignore her 

   E G 
She's my cherry pie 
  A D 
Cool drink of water, such a sweet surprise 
  E G 
Tastes so good, make a grown man cry 
               A 
Sweet cherry pie oh yeah 
   E G 
She's my cherry pie 
         A D 
Put a smile on your face, ten miles wide 
  E G 
Looks so good, bring a tear to your eye 
               A B 
Sweet cherry pie, yeah, pie
           A E 
Swing it, all night long, swing it, I'm a trained professional

   E 
Swingin the bathroom, swingin' on the floor 
                          A 
Swingin' so hard, we forgot to lock the door 
 E 
In walks her daddy standin' six foot four 

He said you ain't gonna swing with my daughter no more 

   A C 
She's my cherry pie 
  D G 
Cool drink of water, such a sweet surprise 
  A C 
Tastes so good, make a grown man cry 
   D 
Sweet cherry pie oh yeah 
   A C 
She's my cherry pie 
         D G 
Put a smile on your face, ten miles wide
  A C  
Looks so good, bring a tear to your eye 
   D A        
Sweet cherry pie, sweet cherry pie, swing it!

I Need A Doctor Tabs by The Drums

 Rhythm Guitar

e|---------------------------------|------------------------------|
B|---------------------------------|------------------------------|
G|---------------------------------|------------------------------|
D|-----------0----------0----------|---------0---------------0---0|
A|---0---0-------0---------------0-h/2---2-----------0-h/2--------|
E|---------------------------------|------------------------------|
     1   &   2   &   3   &   4   &   1   &   2   &   3   &   4   &
e|---------------------------------|------------------------------|
B|---------------------------------|------------------------------|
G|---------------------------------|------------------------------|
D|-----------0-----------0---------|---------0---------------0---0|
A|---0-----------0---0-----------0-h/2-- 2-----------2---2--------|
E|---------------------------------|------------------------------|  Repeat
     1   &   2   &   3   &   4   &   1   &   2   &   3   &   4   &



Lead Guitar

Verse:
e|---------------------------------|------------------------------|
B|---------------------- 2---------|-------------------------2----|
G|---------------2-----------------|-----------------2------------|
D|-----------2---------------------|---------2--------------------|
A|---------------------------------|------------------------------|
E|---------------------------------|------------------------------|  Repeat
     1   &   2   &   3   &   4   &   1   &   2   &   3   &   4   &

Chorus
e|---------------------------------|------------------------------|
B|----------------------10---------|10----------------------------|
G|---9---9---9---9---9-------------|---------11-------------------|
D|---------------------------------|------------------------------|
A|---------------------------------|------------------------------|
E|---------------------------------|------------------------------|
     1   &   2   &   3   &   4   &   1   &   2   &   3   &   4   &

e|---------------------------------|------------------------------|
B|----------------------10---------|10----------------------------|
G|---9---9---9---9---9-------------|---------11-------------------|
D|---------------------------------|------------------------------|
A|---------------------------------|------------------------------|
E|---------------------------------|------------------------------|
     1   &   2   &   3   &   4   &   1   &   2   &   3   &   4   &

e|---------------------------------|---------9--------------------|
B|----------------------10---------|10----------------------------|
G|---9---9---9---9---9-------------|------------------------------|
D|---------------------------------|------------------------------|
A|---------------------------------|------------------------------|
E|---------------------------------|------------------------------|
     1   &   2   &   3   &   4   &   1   &   2   &   3   &   4   &

e|---------------------------------|---------9--------------------|
B|----------------------10---------|10----------------------------|
G|---9---9---9---9---9-------------|------------------------------|
D|---------------------------------|------------------------------|
A|---------------------------------|------------------------------|
E|---------------------------------|------------------------------|   Repeat
     1   &   2   &   3   &   4   &   1   &   2   &   3   &   4   &


Solo:
e|---------------------------------|------------------------------|
B|--14--14--14--14--14--14--14--14-|14b-------------------------14|
G|---------------------------------|------------------------------|
D|---------------------------------|------------------------------|
A|---------------------------------|------------------------------|
E|---------------------------------|------------------------------|
     1   &   2   &   3   &   4   &   1   &   2   &   3   &   4   &

e|---------------------------------|

Pom Poms Tabs by Scout Niblett

 -------------------------------------------------------------------------------
                             Pom Poms by Scout Niblett
-------------------------------------------------------------------------------
: Scott H.

From "Kidnapped by Neptune" (2005). This one's a little unusual in that halfway through 
the song she abandons the guitar and switches to drums only. Below I've tabbed the 
guitar portion of the song (the first half). Pretty easy. She finger picks these chords.

Tuning: EADGBE

Verse
e|-----------------------------------------------------------------------|
B|-----------------------------------------------------------------------|
G|-----------------------------------------------------------------------|
D|-x-7-x-7-x-7-x-7--x-8-x-8-x-8-x-8--x-7-x-7-x-7-x-7--x-8-x-8-x-8-x-8----|
A|-x-7-x-7-x-7-x-7--x-8-x-8-x-8-x-8--x-7-x-7-x-7-x-7--x-8-x-8-x-8-x-8----|
E|-5-5-5-5-5-5-5-5--6-6-6-6-6-6-6-6--5-5-5-5-5-5-5-5--6-6-6-6-6-6-6-6----|


Chorus
e|---------------------------------------------|
B|---------------------------------------------|
G|----------------------x-8--------------------|
D|-x-8--x-7--x-5--x-3---x-8--x-7-x-7-x-7-x-7---|
A|-x-8--x-7--x-5--x-3---6-6--x-7-x-7-x-7-x-7---|
E|-6-6--5-5--3-3--1-1--------5-5-5-5-5-5-5-5---|


Lyrics:

    Whatever you wanna say,
    You can say it to me
    Whatever you wanna be,
    You can be it
    Whoever you wanna love,
    You can love 'em
    Right now

    Does anybody know a cute girl
    With some pom poms?

    Does anybody know a cute girl
    With some pom poms?

    Everybody needs someone
    To spell out their name, yeah

    Cause everybody needs someone
    To spell out their name
    In a little song

    So please, please, please
    Just send her along
    Please, please, please
    Just send her along

    To cheer me on, cheer me up
    Cheer me on, cheer me on
    To cheer me on, cheer me up
    Cheer me on, cheer me on
    In a little song

Tape Deck Chords – Jack Johnson

 From Jack's new album. Enjoy!
It's a bit tricky at first, but listen to the song to work through all the rough spots. 
Hope it helps out!
-----------------------------------------------------------------------------
Capo 1

Intro:  A D D E A D D E A D 
From my tape deck there's a recklessness
         D E 
Inflections of the world we want
         A D 
All my friends, my rusty truck
        D E 
We're just specks of love, directionless
        A D 
Call this band just what we want
         D E 
We can change the name from month to month
        A D 
Four guitars and zero drums
        D E D 
We sounded folk but we wanted to be punk
 E D E 
In a world post punk

         A D 
My friend had an old guitar
        D E 
He took some lessons didn't get very far
       A D 
An Ibanez with one knob stuck
      D E 
Said, "You can have that thing for fifty bucks"
      A D 
Laura got a bass but it got no amp
       D E 
Borrowed skills but never gave it back
    A D 
Luke is just learning how to strum
     D E D 
But since he was the worst, we made him play the drums
 E D E 
Play the drums


      A 
You may find
      D 
In the palm
      E 
Of your hand
      D 
There's a flame
      A 
As it burns
      D 
As it climes
       E 
As it turns
       D 
To a blaze
       A 
Well this flame
       D 
It won't last
        E 
Here it comes
        D 
Hold it close
        A 
Cause this blaze
        D 
Can be fast
        E D 
Set it free now there it goes

Instrumental:  A ,  D E ,  D ,  E ,  A ,  D ,  D ,  E A D 
Luke's mom said that after school
    D E 
We could rehearse in the living room
    A D 
But that sure didn't last too long
   D E 
Guess she didn't know we'd play Fugazi songs
    A D 
We played these songs in the talent show
    D E 
And all of the girls would be in the front row
    A D 
But in the end we just chickened out
 D E D 
Because we can't sing, we can only shout
 E D E 
Only shhh


     A 
You may find
      D 
In the palm
      E 
Of your hand
      D 
There's a flame
      A 
As it burns
      D 
As it climes
       E 
As it turns
       D 
To a blaze
       A 
Well this flame
       D 
It won't last
        E 
Here it comes
        D 
Hold it close
        A 
Cause this blaze
        D 
Can be fast
        E D 
Set it free now there it goes

Instrumental:  A ,  D E ,  D ,  E ,  A ,  D ,  D</spa

Punk Rawk Show Chords – Mxpx V2

 MXPX
Punk Rawk Show
Teenage Politics
1995 Fat Wreck Chords
Submitted by: jeremyunderground41@yahoo.com

Key: C

Tuning: Standard EADGBe

Chords used:
 C  -  x32010
 Am  - x02210
 Dm  - xx0231
 G  -  320003
 F  -  133211


Intro: 1-2-1234!!!

 C - Am - Dm - G - x2


Verse 1:
 C  
We ain't got no
 Am 
place to go
    Dm 
So let's go to 
     G 
the punk rawk show
 C 
Darling take 
    Am 
me by the hand
       Dm 
We're gonna see
   G 
a punk rawk band
 C Am 
There's no use in TV
       Dm G 
shows radio or rodeo
   C Am 
I wanna get into the crowd
   Dm G C (hold)
I wanna hear it played real loud


Verse 2: Very fast punk rock drums!!!
 C  
We ain't got no
 Am 
place to go
    Dm 
So let's go to 
     G 
the punk rawk show
 C 
Darling take 
    Am 
me by the hand
       Dm 
We're gonna see
   G 
a punk rawk band
 C Am 
There's no use in TV
       Dm G 
shows radio or rodeo
   C Am 
I wanna get into the crowd
   Dm G C Am Dm G 
I wanna hear it played real loud
 C Am Dm G 
yeah   yeah


Chorus 1:
 F 
  Ain't got no
money to pay
 C 
We'll get in anyway
 G 
Doesn't matter 
I don't care
 Am 
It's feel good so
we should share
 F 
  We're going to
     G C Am Dm G 
the punk rawk show
 C Am Dm G 
whoa


Chorus 2:
 F 
  Ain't got no
money to pay
 C 
We'll get in anyway
 G 
Doesn't matter 
I don't care
 Am 
It's feel good so
we should share
 F 
  We're going to
     G C Am Dm G C Am Dm G 
whoa


Interlude: Cool drumbeats
 C - Am - Dm - G - x4


Verse 3:
 C  
We ain't got no
 Am 
place to go
    Dm 
So let's go to 
     G 
the punk rawk show
 C 
Darling take 
    Am 
me by the hand
       Dm 
We're gonna see
   G 
a punk rawk band
 C Am 
There's no use in TV
       Dm G 
shows radio or rodeo
   C Am 
I wanna get into the crowd
   Dm G C Am Dm G 
I wanna hear it played real loud
 C Am Dm G 
yeah   yeah


Chorus 3:
 F 
  Ain't got no
money to pay
 C 
We'll get in anyway
 G 
Doesn't matter 
I don't care
 Am 
It's feel good so
we should share
 F 
  We're going to
     G C Am Dm G C Am Dm G 
whoa
 F 
  Ain't got no
money to pay
 C 
We'll get in anyway
 G 
Doesn't matter 
I don't care
 Am 
It's feel good so
we should share
 F 
  We're going to
     G <spa

Eternity Chords – Imelda May

 #----------------------------------PLEASE NOTE--------------------------------#
#This file is the author's own work and represents their interpretation of the#
#song. You may only use this file for private study, scholarship, or research.#
#-----------------------------------------------------------------------------#
#-----------------------------------------------------------------------------#
#   If you like this tab, please rate it above.  Thank you.
#-----------------------------------------------------------------------------#

 John Shaw (jashaw@shaw-web.net)
Artist: Imelda May
Song: Eternity

Intro:  D D C A D D C A D 
Since I met you baby  I feel that you somehow saved (me)
          G F G F     
You're smile lets me know that you're heart warmly glows
 D C D D C D 
It took forever to find eternity  Took forever to find eternity

 D C A D D C A D 
Time flew by me  Now I understand you see
          G F G F     
Time played a waiting game, It seems you felt the same
 D C D 
Oh it took forever to find eternity... Yeah yeah yeh
 D C D 
It took forever to find eternity

 Bb Dm F D Bb Dm F D 
When love passes by  No-one really understands why
 Bb Dm F D 
But time will help you'll see
 Bb A 
Another wait, it's not too late to find eternity

 D C A D D C A D 
Oh love is now set free  The waiting game was the key
          G F G F     
And when I see you standing there, Everything now seems fair
 D C D 
It took forever to find eternity... Yeah yeh eh
 D C D 
It took forever to find eternity

Lead Break (Verse)

 Bb Dm F D Bb Dm F D 
When love passes by  No-one really understands why
 Bb Dm F D 
But time will help you'll see
 Bb A 
Another wait, it's not too late to find eternity

(Drums- N/C)
Oh love is now set free The waiting game was the key
          G F G F     
And when I see you standing there Everything now seems fair
 D C D 
It took forever to find eternity... Yeah yeah yeh
 D C D 
It took forever to find eternity

 D C A D C A  
It took forever,      It took forever  
 D C D 
It took forever to find eternity

Billie Jean Chords – Michael Jackson V7

 BILLIE JEAN
Michael Jackson
KEY: F#m
Transcribed by:  May Anne Luyun

INTRO:
| Drums | [2 bars]
Bass: (8 notes)
| F# C# E F# E C# B C#  |  [2 bars]
Synths: (single notes)  
|  F# G#  |  A G#  |

VERSE
 F#m  (BASS LINE: | F# C# E F# E C# B C#  |)
She was more like a beauty queen from a movie scene
                                                  Bm   (BASS LINE: |  B F# A B A F# E F#  |)
I said, "Dont mind but what do you mean I am the one
                                    F#m 
Who will dance on the floor in the round?"
                     Bm F#m      
She said, "I am the one who will dance on the floor in the round"

She told me her name was Billie Jean as she caused a scene
                                                            Bm 
Then every head turned with eyes that dreamed of being the one
                                    F#m 
Who will dance on the floor in the round

PRE-CHORUS:
 D F#m 
People always told me, "Be careful of what you do
     D F#m   
And dont go around breaking young girls hearts"
     D F#m 
And mother always told me, "Be careful of who you love
        D C#7 
And be careful of what you do cause the lie becomes the truth"

CHORUS:
 F#m 
Billie Jean is not my lover
                                           Bm 
Shes just a girl who claims that I am the one
                       F#m 
But the kid is not my son
                   Bm F#m 
She says I am the one but the kid is not my son

VERSE 2:
(Synths: |  C#  | -  D# B  |  C#  |)
 F#m  
For forty days and forty nights, law was on her side
                              (Synths:  B A F# )
                                                        Bm 
But who can stand when shes in demand, her schemes and plans
                                     F#m 
Cause we danced on the floor in the round
                     Bm F#m 
So take my strong advice, just remember to always think twice

Do think twice, do think twice
(Synths: |  C#  | -  D# B  |  C#  |)
 F#m  
She told my baby, we were dancing still three then she looked at me
                                   (Synths:  B A F# )
                                                            Bm 
Then showed a photo my baby cried cause his eyes were like mine, oh no
                                      F#m 
Though wed dance on the floor in the round, baby

PRE-CHORUS:
 D F#m 
People always told me, "Be careful of what you do
           D F#m 
And dont go around breaking young girls hearts"
         D F#m 
But she came and stood right by me then the smell of sweet perfume
      D C#7 
This happened much too soon; she called me to her room

Bro Hymn Chords – Pennywise

 Pennywise
Bro Hymn Tribute
Full Circle
1997
Submitted by

Key: C

Tuning: Standard EADGBe

Chords used:
 C     x32010
 Dm    xx0231
 Em    022000
 F     133211


Intro:

Bass:  Dm F Em C F C F Em Dm    x2


Verse 1: Bass only
 Dm 
  To our best friend
                  F Em 
Present past and beyond 
 C 
  Even though they
weren'twith us too long 
 F 
  Your life is the
      C 
most precious thing
      F Em Dm 
that we could lose
 Dm 
  While you were here
                  F Em 
the fun was neverending
 C 
  Laugh a minute only
the beginning
 F 
  Jason Matthew 
 C 
Thirsk this
 F Em Dm 
one's for you


Chorus 1:
 Dm F Em C 
Whoa whoaaa
 F C F Em Dm 
Whoa  whoaaa
 Dm F Em C 
Whoa whoaaa
 F C F Em Dm 
Whoa  whoaaa


Verse 2:
 Dm 
  Ever get the feeling
           F Em 
you can't go on 
 C 
  Just remember whose
side it is that you're on
 F 
  You've got friends
 C F Em Dm 
with you until the end 
 Dm 
  If you're ever in a tough 
     F Em C 
situa tion we'll be there 
with no hesitation 
 F C 
Brotherhood's our rule 
      F Em Dm 
that cannot bend


(Repeat Chorus 1)


Verse 3:
 Dm 
  When you're feeling
                  F Em 
too close to the bottom 
 C 
  You know who it is
you can count on
 F C 
  Someone will pick you
 F Em Dm Dm 
up a  gain  we can
                    F Em 
conquer anything together
 C 
  All of us are bonded
            F 
forever if you die I die 
 C F Em Dm 
that's the way it is


(Repeat Chorus 1)


Bridge: Jim Lindberg speaks
 Dm F Em C F C F Em Dm    x2


(Repeat Chorus 1)


Interlude:
 Dm F Em C F C F Em Dm   

Very fast punk rock drums!!!
 Dm F Em C F C F Em Dm   


Chorus 2: Very fast punk rock drums!!!
 Dm F Em C 
Whoa whoaaa
 F C F Em Dm (hold)  <drums rollings="" /> Dm (hold)  Dm (Hold)
Whoa  whoaaa


Interlude:
 Dm F Em C F C F Em Dm   


Chorus 3: Very fast punk rock drums!!!
 Dm F Em C 
Whoa whoaaa
 F C F Em Dm 
Whoa  whoaaa
 Dm F Em C 
Whoa whoaaa
 F C F</

Never Said Chords – Boy Sets Fire

 BOYSETSFIRE - Never Said

4X Drums
2x Git only

VERSE:
 C#  
This is where I will stand
 G#  -  B 
And here is where I will stay
 F# 
To my last breath unitl myyyyy dyyyying day

Cause we have nothing to lose
No reason to hide
No hope for tomorrow, if not for tonight
Hoooooold your ground - and fight!

PRECHORUS:
 B  -  G#  -  D#  -  F# 
Let this moment never fade away

CHORUS:
 C#  -  F#  -  C#  -  F#  -  B 
Honestly - you'll have to bring your tanks in and invade
 G#  -  F# 
cause we're not moving from this place...
 C# 

VERSE:
 C# 
There is no cause to great
 G#  -  B 
There is no price to high
 F# 
For the future I stand I saaaaaacrifice

Cause we have nothing to lose
No reason to hide
No hope for tomorrow, if not for tonight
Hoooooold your ground - and fight!

PRECHORUS
 B  -  G#  -  D#  -  F# 
Let this moment never fade away - keep screaming!

CHORUS
 C#  -  F#  -  C#  -  F#  -  B 
Honestly - you'll have to bring your tanks in and invade
 G#  -  F# 
cause we're not moving from this place...

 C#  -  F#  
I believe
´ C#  -  F#  -  B 
our lives are still worth fighting for, we're free
 G#  -  F# 
as long as we demand to be

BRIDGE
 B  -  C  -  C#  -  D#  - ( F )
Banging my head
Agaaaaaaainst the wall
Another leader chosen
To teach us how to crawl!

 B  -  C  -  C#  -  D# 
Appoint a new regime
With all the old rapport
Full of empty promise
not worth dying for!

CHORUS (starts clean)
 C#  -  F#  -  C#  -  F#  -  B 
Honestly - you'll have to bring your tanks in and invade
 G#  -  F# 
cause we're not moving from this place...

 C#  -  F#  
I believe
 C#  -  F#  -  B 
our lives are still worth fighting for, we're free
 G#  -  F# 
as long as we demand to be
 F  -  G#  -  F# 
as long as we demand to be

All Youve Left Tabs by Six Organs Of Admittance

 SIX ORGANS OF ADMITTANCE
"EIGHTH COGNITION/ALL YOU'VE LEFT"
Off their album "School of the Flower"

First minute and a half is all noise, drums and feedback ("Eighth Cognition").

Intro/Verse
E|--------------------------0--0-0-----------|
B|-0----------0--0h3--3------------3----0----|
G|---2-0--2--------------------------2-------|
D|------------0-------0-----2-----------0----|
A|-------------------------------------------|
E|-0----------3-------3-----0-----------3----|

The next riff is just the end of the verse

E|-0--0-0-----------|
B|--------3----0----|
G|----------2-------|
D|-2-----------0----|
A|------------------|
E|-0-----------3----|

"Interlude"
E|-3--2-0----0-------------------------|
B|--------3-----3--0----0-----------0--|
G|-----------0-------------2--0--2--0--|
D|----------------------2-----------0--|
A|-------------------------------------|
E|-0---------3----------0-----------3--|

Most of the song is the intro/verse riff with a couple of the "interlude" riffs thrown in. 
Ben fingerpicks other notes in the chords but this is the basic gist of it. 

Questions or comments e-mail briansyates@gmail.com

Back To Life Chords – 3oh3 V2


VERSE 1:
           Bb2 
There's a drum line in my heartbeat
         Eb2/B 
I know exactly where it's from
        Gm2/ B 
They're turning off the street lamps
     [ G ]      F2/C 
They say the day is almost done
           Bb2 
There's a ringing in my ears now
     Eb2/B 
I remember how it was
    Gm2/ B 
The feeling we had last night
[ G ]     F2/C 
And it won't stop now because
                Bb2 
Everybody says hey, no
                         Eb2/B 
We don't wanna see this day go
                 Gm2/ B 
If I ever had my say, so
                [ G ]      F2/C 
We can make this go all night, night, night

CHORUS:
                        Eb 
'Cause if the party is dead
                         Gm 
We can bring it back to life
                                  Bb 
Yeah, we can make it through the night
                                   F 
If you listen to the words that I say
                        Eb 
'Cause if the party is dead
                       Gm 
All we need is candle light
                         Bb 
And a little bit of dynamite
                               F 
Everybody will get out of our way

VERSE 2:
         Bb2   
I got a song stuck in my head
          Eb2/B 
I know exactly why it's there
          Gm2/ B 
There's a noise outside my bedroom
[ G ]    F2/C 
  And I don't even care
                 Bb2 
If I ever said "go home"
                           Eb2/B 
Everybody here would say "hell no"
                        Gm2/ B 
All we gotta do is just let go
                       [ G ]  F2/C 
We can make it through the night
 
CHORUS

BRIDGE:
 Eb Gm Bb F 
Whoa-o-o-o-o  Whoa-o-o-o-o  Whoa-o-o-o-o  Oh-o
 Eb Gm 
   We can bring it back to life
 Bb F 
   Yeah, we can bring it back to life
            Eb 
'Cause I'm never gonna get these drums out of my head
         Gm 
And I'm never gonna get some sleep inside of my bed
         Bb F 
And I'm sorry if good night is something I never said, said, said
 
CHORUS
 
BRIDGE

INTRO (then end on Bb octave)

Fireside Tabs by Arctic Monkeys

 Here is the masterpiece of "AM". The chords are based on the first covers posted 
on Youtube. Any correction is welcome, although it should be 100% correct.

The rhythm is U-D U-D U-U-U-D for the verse. You can keep it for the chorus and 
the bridge or switch to U-D U-D U-D U-D to fit with the drums. It is not palm-muted.


riff 1 :


E|------------------------------------------------------------------|
B|-/13-10-8b9r8----/13-/15-8----/13-10-8b9r8------------------------|
G|------------------------------------------------------------------|
D|------------------------------------------------------------------|  
A|------------------------------------------------------------------|
E|------------------------------------------------------------------|


riff 2:

E|------------------x4-------------|
B|---------------10----------------|
G|--------10--12-------------------|
D|-10-12------------------10-12----|  
A|---------------------------------|
E|---------------------------------|


Dm
I can’t explain but I want to try
There’s this image of you and I
Bb                    Gm                                     Dm
And it goes dancing by in the morning and in the night time
Dm
There’s all these secrets that I can’t keep
Like in my heart there’s that hotel suite
Bb                           Gm                                 Dm
And you lived there so long, it’s kinda strange now you’re gone

               Bb                        Gm
I’m not sure if I should show you what I’ve found
            Bb                           Gm
Has it gone for good or is it coming back around?
                             Bb                       
Isn’t it hard to make up your mind
            Gm                      Dm
When you’re losing and your fuse is fireside

Dm
There’s all those places we used to go
And I suspect you already know
Bb
But that place on Memory Lane you liked
Gm                                                      Dm
Still looks the same but something about it’s changed

               Bb                        Gm
I’m not sure if I should show you what I’ve found
            Bb                           Gm
Has it gone for good or is it coming back around?
                             Bb                       
Isn’t it hard to make up your mind
            Gm                      Dm
When you’re losing and your fuse is fireside

              Bb(riff 1)         Gm          Bb
And I thought I was yours forever
                Gm
Maybe I was mistaken
                    Bb
But I just cannot manage to make it through the day
 Gm                          Dm
Without thinking of you lately


Solo: (refer to the song for the rhythm. There may be other notes, but i'm not 
sure if it is the guitar playing. Same chords and rhythm as the verse)

E|-13-13---13-12---12-------10-b10,5r10-----------------------------|
B|----------------------10------------------------------------------|
G|------------------------------------------12-10-12-12-b13r12-10---|
D|------------------------------------------------------------------|  
A|------------------------------------------------------------------|
E|------------------------------------------------------------------|

E|------------------------------------------------------------------|
B|-10------------10------11b12r11-10----10-------13-11-10-----------|
G|--------10-12----------------------12-------------------12-10-----|
D|-----12------------12---------------------------------------------|  
A|------------------------------------------------------------------|
E|------------------------------------------------------------------|

               Bb                        Gm
I’m not sure if I should show you what I’ve found
            Bb                           Gm
Has it gone for good or is it coming back around?
                             Bb                       
Isn’t it hard to make up y

Stay At Home Chords – Yellow Ostrich V3

 This is based on the other versions available on the web, has only a few changes.
It's probably far from perfect, but it works for me. The intro and chords at the 
beginning should make up for the rhythm of the drums.

Capo on 2 fret: All chords relative to capo


Intro:  E D A E A  couple of times

 E D A 
If I see you, then you know
                     E 
This has gone too far
 E D A 
Cause our romance, can only live behind
                      E 
All the walls there are

          E 
And we never can meet
         D 
Oh we never can greet
       A E 
We never can say hello
             E 
Cause our bones are too weak
         D 
To be sold on the street
       A E 
To survive we must stay at home

(Same as first verse)
And I'll think of you, every other day
Just to throw them off
And I'll know you, by the color of your walls
In the beauty sky

(Same as first verse)
Cause out there, every little bird
Is shivering and cold, by this frightful air
And out there every little spark, quickly fading dark
From the strangers tail

(Same as chorus)
And we never can meet
Oh we never can greet
We never can say hello

Cause our bones are too weak
To be sold on the street
To survive we must stay at home

 Bm Am 
Inside, inside
 Bm Am 
Inside, Inside
        Bm Am 
Its where I will hide
       Bm Am 
Its where I will hide
      Bm Am 
Its where I will hide
       A 
From you

Outro:  E D A E A  couple of times

Double Dare Tabs by Yo La Tengo

 -------------------------------------------------------------------------------
                             DOUBLE DARE - YO LA TENGO
-------------------------------------------------------------------------------
Tabbed by: Fetusrobot
E-mail: Fetusrobot@gmail.com

Tuning: EADGBE

ok so first off i'd like to say that this is just my interpretation of the song.
it sounds tight enough to me so i think it would be a good idea to upload it
here. below are just the basic chords and progressions of the song (including
that 'solo' that goes dooweoo dow doo too doo ta doo bwoo). the strumming is
pretty simple so i guess you can figure it out right? right.

*this is the line that you can't really hear at first, slowly taking part after
two bars of a disfigured guitar line playing E F#m | Abm F#m and back*

e|---------------------|-----------0---------0---------|
B|---------------------|-----------0---------0---------|
G|-8----6----8----6----|-8----6----1----6----1----6----|
D|-6----4----6----4----|-6----4----2----4----2----4----|
A|---------------------|-----------2---------2---------|
E|---------------------|-----------0---------0---------|
                      ***
***this is where the song gains traction, when the drums come in***

e|------------------------------------------------------|
B|------------------------------------------------------|
G|-6brb-4-2-1-2-1--1-6brb-4-2-1-2-1--1-6brb-4-2-1-2-1--1|
D|---------------2-2---------------2-2---------------2-2|
A|------------------------------------------------------|
E|------------------------------------------------------|

e|----------------|
B|----------------|
G|-6brb-4-2-1-2-1-|
D|----------------|
A|----------------|
E|---------------0|

***
***this is the main line, the rhythm line plays E F#m Abm F#m E like the intro***

e|-0-------------------|-2----0----2----0----2--------0-|
B|-0-------------------|-2----0----2----0----2--------0-|
G|-1----6----8----6----|-2----1----2----1----2--------1-|
D|-2----4----6----4----|-4----2----4----2----4--------2-|
A|-2-------------------|-4----2----4----2----4--------2-|
E|-0-------------------|-2----0----2----0----2--------0-|
   %    &    *    &      #    %    #    %    #        %

%           &     *                      &
I, I should know. You, shouldn't have to tell me.

#                  %           #        %               #            %
Sometimes it's the way we feel. All the way we feel, we feel, pretty bad.

e|----------------|
B|----------------|
G|-6brb-4-2-1-2-1-|
D|----------------|
A|----------------|
E|---------------0|

e|-0-------------------|
B|-0-------------------|
G|-1----6----8----6----|
D|-2----4----6----4----|
A|-2-------------------|
E|-0-------------------|

e|-0-------------------|-2----0----2----0----2--------0~~~~~~~~|
B|-0-------------------|-2----0----2----0----2--------0~~~~~~~~|
G|-1----6----8----6----|-2----1----2----1----2--------1~~~~~~~~|
D|-2----4----6----4----|-4----2----4----2----4--------2~~~~~~~~|
A|-2-------------------|-4----2----4----2----4--------2~~~~~~~~|
E|-0-------------------|-2----0----2----0----2--------0~~~~~~~~|
   %    &    *    &      #    %    #    %    #        %       ***

***you might want to use a tremolo arm for this part***

%           &     *                  &
In a double dare, he's got wandering eyes.

#              %           #        %                      #               %
And I see them look at you, looking straight at you, but i know where they are.

e|-0-------------------0-------------------|
B|-0-------------------0-------------------|
G|-1-----------2-/6~~~\1-----------2-/6~~~~|
D|-2--------4----------2--------4----------|
A|-2-------------------2-------------------|
E|-0-------------------0-------------------|

e|-------------------------------------------------------|
B|-------------------------------------------------------|
G|-6brb-4-2-1-2-1--1-6brb-4-2-1

Lances Song Chords – Zac Brown Band V3

 Capo 1

 C G    x2

 G C 
Doing what you love has a high price to pay
 D G 
Some put on a suit but he ran the other way
 G C 
His drums drown out the yuppies and the ones who couldn't dream
           D G 
Cause the freedom music gave him was worth more than anything


Chorus:
            C G 
They don't know what they got
            D G Gsus4 G 
Until it's gone, like it or not
             C G 
You live on love, you try to do what's right
 D G 
We're all here a-waiting for our silver invitation to the big band in the sky


Rollin down the windows, trying hard to fight the sleep
Money's never much for a band in Tennessee
Another night of playin to a crowd with no ears
Wanna hear the songs they know and fill their bellies full of beer


Chorus

 C G 
Oooh oo oo oo oo oo oo oooh
 C G 
Oooh oo oo oo oo oo oo oooh


Bridge:

     C G 
And when he closed his eyes, fell into a dream that never dies
     C G 
And when the thunder comes, you can hear his kick drum in the sky
          D C 
Feel the rain fall from our eyes


Chorus 1:
Cause we don't know what we got
Until it's gone, like it or not
You live on love, you try to do what's right
For him there's no more waiting, got his silver invitation to do a little playing for 
the big band in the sky

 C G 
Oooh oo oo oo oo oo oo oooh
 C G 
Oooh oo oo oo oo oo oo oooh

Earth Like Heaven Chords – Jonathan David Helser

 (intro)
||:  Fm  / / / / |  Cm  / / / / |  Db  / / / / |  Eb  / / / / :||(x3) [drums in on 3rd time]
|  Fm  / / / / |  Cm  / / / / |  Db  / / / / | / / / / |
[all in] ||:  Fm  / / / / |  Eb  / / / / |  Db  / / / / | / / / / :||(x2)
(verse 1) [no bass]
 Fm Eb  
 The dust that we were made of
 Db  / / / / | / / / / |
 Is calling us to free them
 Fm Eb  
 The earth that we were pulled from
 Db  / / / / | / / / / |
 Is crying liberate us
(interlude) [bass in]
 Fm  / / / / |  Eb  / / / / |  Db  / / / / | / / / / |
(Bass: F  / / / / |  G  / / /  Ab  / |  Db  / / / / | / / / / | )
(one time, repeat verse 1 [no bass], directly into channel 1)
(channel 1)
 Fm Cm 
 We won't be satisfied
 Db Eb  / / / / |
 Until the earth looks just like heaven
 Fm Cm 
 We won't be satisfied
 Db Eb  / / / / | / / / / |
 Until the earth looks just like heaven
(to interlude) (x2) [full band]
(verse 2) [bass fade out]
Like the waters cover the sea
Let the earth be filled with your glory
Until the prayers you prayed become reality
And the earth looks just like heaven
(channel 2) [no bass]
 Fm Cm 
 We won't be satisfied
 Db / / / / | / / / / |
 Until the earth looks just like heaven
 Fm Cm 
 And the prayers you prayed become reality
 Db Eb  / / / / | / / / / |
 And the earth looks just like heaven
(chorus)
 Fm Eb 
 Wake up you sons and daughters
 Db  / / / / | / / / / |
 You were made for so much more
 Fm Eb 
 Wake up you sons and daughters
 Db  / / / / | / / / / |
 Start singing, creation's waiting
(to interlude) (x2) [full band]
(bridge)
 Fm Eb 
 Your kingdom come, your will be done
 Db  / / / / | / / / / |
 Until the earth looks just like heaven
 Fm Eb 
 Your kingdom come, your will be done
 Db Eb  / / / / | / / / / |
 Until the earth looks just like heaven 
(to chorus)
(to interlude) [full band]
(to verse 2:  Fm  / / / / |  Cm  / / / / |  Db  / / / / |  Eb  / / / / |
  Fm  / / / / |  Cm  / / / / |  Db ... (end)

Antenna Tabs by Colour Haze

 -------------------------------------------------------------------------------
                             Antenna - Colour Haze
-------------------------------------------------------------------------------
Tabbed by: Meuwh

Tuning: drop C
C-G-C-F-A-D

-------------------------------------------------------------------------------
This song is for 95% correct.
If you have any corrections, please leave a comment below.
Any suggestions for another Colour Haze song ? Comment below


Thanks.
-------------------------------------------------------------------------------


0:00
e|---------------------------------------------------------------------------|
B|------13-------------------------------------------------------------------|
G|-------------12----14-----10-----12-------------12--10---------------------|
D|-0-12-----0------0-----0------0-------10h12-12----------10h12-12-----------|
A|---------------------------------------------------------------------------|
E|---------------------------------------------------------------------------|
                                          1:07
e|---------------------------------------------------------------------------|
B|---------------------------------------------------------------------------|
G|---------------------------------------------------------------------------|
D|--10-----------------------------------------------------------------------|
A|------12-10h12-12-12-------------------------------------------------------|
E|---------------------------------------------------------------------------|


repeat 6 times,
at the 5th time, drums fill in, volume swells

1:08
e|---------------------------------------------------------------------------|
B|--------13-13 13/15--------------------------------------------------------|
G|---------------------14-12-12h14-12-10----10-------------------------------|
D|--0-12---------------------------------12----------------------------------|
A|---------------------------------------------------------------------------|
E|---------------------------------------------------------------------------|

repeat this until 1:27
e|---------------------------------------------------------------------------|
B|---------------------------------------------------------------------------|
G|-14b15-12-14-10-12----------10------14b15-12-14-10-12-9-9h10-9-------------|
D|-------------------10-10h12----12------------------------------10-10/12----|
A|---------------------------------------------------------------------------|
E|---------------------------------------------------------------------------|



1:28
e|---------------------------------------------------------------------------|
B|---------------------------------------------------------------------------|
G|---------------------------------------------------------------------------|
D|-12-12-12-12-12-12--10-10-10-10-10-10-10--14-14-14-14-14-14-14-------------|
A|-0-----0-----0------0-----0-----0-----0------0-----0-----0-----------------|
E|---------------------------------------------------------------------------|

e|---------------------------------------------------------------------------|
B|---------------------------------------------------------------------------|
G|---------------------------------------------------------------------------|
D|-12-12-12-12-12-12---------------------------------------------------------|
A|-0-----0-----0-------------------------------------------------------------|
E|---------------------------------------------------------------------------|

e|---------------------------------------------------------------------------|
B|---------------------------------------------------------------------------|
G|---------------------------------------------------------------------------|
D|-12-12-12-12-12-12--10-10-10-10-10-10-10--14-14-14-14-14-14-14-------------|
A|-0-----0-----0------0