Tag: duke

Kingdom Underground Tabs – Matt Duke

 -------------------------------------------------------------------------------
                             SONG NAME - Band Name
-------------------------------------------------------------------------------
: Jonathan Kramarsky
 Jonkramarsky
========NOTE======
This is merely the notes and brief strumming and picking patterns. This song is best learned watching 
Matt and looking at the tab. try it slow at first, you will get it!
Tuning: D A D G B E
1st  part of verse
d|------------0--------------------------------------------------------- ----|
B|---------------------------------------------------------------------------|
G|---2--------------2-------5------------------------------------------------|
D|-0---0----------0---0------------------------------------------------------|
A|-------3/5------------3/5--------------------------------------------------|
D|--------------0-------------0----------------------------------------------|
2nd part of verse, shows up once in a while
d|---------------------------------------------------------------------------|
B|---------------------------------------------------------------------------|
G|---------------------------------------------------------------------------|
D|----10-10-10---10-10-10-----12-12-12---------------------------------------|
A|---------------------------------------------------------------------------|
D|--8----------7-----------10----------0-(continue with rhythm as above)-----|
    D  D U  U  D D  U  U   D   D  U  U  D
Chorus similar strumming as 2nd part of verse
d|---------------------------------------0------------------------- ---------|
B|---------------------------------------------------------------------------|
G|---2-2-2----2-2-2---4-4-4------2-------------2-------5---------------------|
D|-----------------------------0---0---------0---0----------(and repeat as needed|
A|-3---------------------------------3/5-----------3/5-----------------------|
D|---------4--------5--------0-------------0-------------0-------------------|
SOLO!!!!!! LISTEN TO THE SONG TO GET TIMING THIS IS JUST THE NOTES
d|-0--------------------------------------------------------------------------|
B|-0--------------------------------------------------------------------------|
G|-0---2-h3-p2---------2----2-h3-p2-------------------------------------------|
D|-0------------4---5---------------4---5--0----------------------------------|
A|-0--------------------------------------------------------------------------|
D|-0(carry this chord though out and kind of strum throuugh the solo with this chord|
2nd part of solo he starts singing during it too. also with heavy open struming
d|---------------------------------------------------------------------------|
B|---------------------------------------------------------------------------|
G|-------10-----9-----12----11------(repeat)---------------------------------|
D|-9/12-----12----10-----14----12--------------------------------------------|
A|---------------------------------------------------------------------------|
D|---------------------------------------------------------------------------|
After that solo you go back to chorus again. 
Have Fun! very difficult song!

************************************

| /   slide up
| \   slide down
| h   hammer-on
| p   pull-off
| ~   vibrato
| +   harmonic
| x   Mute note
| b   Bend
| pb  Pre-bend
| br  Bend release
| pbr Pre-bend release
| brb Bend release bend

************************************
Reign o'er with your fiery crown
Sordid kingdom underground
All of the guilty, all of the proud
Fill your kingdom underground

Father, please
Why have you forsaken me?
Father, please
What could I have done to thee?

Sweet reprisal's on the bound
All your armies gather 'round
Fervent cheering from the crowd
As he snakes up through the ground

Father, please
Spare me your mercy and let me be
Father, please
I'll get mine - just you wait and see

I wait for the seventh da

The Duke Tabs by Tommy Emmanuel

 The Duke - Tommy Emmanuel

Artist: Tommy Emmanuel
Tab submitted by: Harold Schaefer
Email: schaefeh_19440

I tabbed this by watching Tommy Emmanuel's youtube videos and some covers.

Tab Notes:               
Tuning: Standard
h = hammer on
P = pull off
/ = slide
  = harmonic

Tuning: DADGBE (Drop D)

Verse

e|--10--9--7--7--7--5--2-5-----|--10--9--7--7--7--5-------2-----|
B|---7-----5-----0--0--3----2--|---7-----5-----0--0--3h5--3--2--|
G|------9--7-----7--6--2----2--|------9--7-----7--6-------2--2--|
D|---------5-----5--5--0-------|---------5-----5--5--5----0-----|
A|---------5-----0-------------|---------5-----0----------------|
D|--------------------------4--|-----------------------------4--|


e|--10--9--7--7--7--5-------2--0--|------0h2-2-----2-2p0--------------|
B|---7-----5-----0--0--3/h5-3--0--|--3/5-0--------3------3p0-----0h3--|
G|------9--7-----7--6-------4--1--|------0-------4--------------2-----|
D|---------5-----5--5--5----4--0--|--5---0------5--------------4------|
A|---------5-----0----------2--2--|------------0--------------0-------|
D|-----------------------------2--|------5-------------------0--------|


e|-------------2-2--2-----2h5--|------------0-----0h2-----|
B|---3h5------0-----2--5--2----|--2h3--0-3--3--3--3----2--|
G|o--0-------0------2-----2----|--2----0----2-----2----2--|
D|o---------0-------2-----4----|--2----0----2-----0-------|
A|---------0--------2-----0----|-------0----0-------------|
D|--------5--------------------|-------5---------------4--|

e|------------2-2--2-----2h5--7--|----- <12>--10p7---0--------|
B|--3h5------0-----2--5--2----5--|----<12>-------8------0----|
G|--0-------0------2-----2----7--|---<12>--------------5-6--o| - repeat last
D|---------0-------2-----4----5--|--<12>--------------9-----o|    two lines
A|--------0--------2-----0----5--|------------------0--------|
D|-------5-----------------------|-<12>----------------------|

e|--10--9--7--7--7--5--2-5-----|--10--9--7--7--7--5-------2-----|
B|---7-----5-----0--0--3----2--|---7-----5-----0--0--3h5--3--2--|
G|------9--7-----7--6--2----2--|------9--7-----7--6-------2--2--|
D|---------5-----5--5--0-------|---------5-----5--5--5----0-----|
A|---------5-----0-------------|---------5-----0----------------|
D|--------------------------4--|-----------------------------4--|

e|--10--9--7--7--7--5-------2--0--|------0h2-2-----2-2p0--------------|
B|---7-----5-----0--0--3/h5-3--0--|--3/5-0--------3------3p0-----0h3--|
G|------9--7-----7--6-------4--1--|------0-------4--------------2-----|
D|---------5-----5--5--5----4--0--|--5---0------5--------------4------|
A|---------5-----0----------2--2--|------------0--------------0-------|
D|-----------------------------2--|------5-------------------0--------|


Bridge (finger rolls throughout...not sure if this is 100%)
Each measure is repeated several times before playing the transition note, 
such as the '12' (E note) in the first measure.
 
The string picking pattern is: (I think)
Strings:
1 2 5 4
4

e|---2-/5-/9-10------10-12--|--9-----9-10--|
B|---------------0----------|----0---------|
G|--3----------11-----------|---9----------|
D|------------9----9--------|--7---7-------|
A|--------------------------|--------------|
D|--------------------------|--------------|


e|--7----7--5--5--|--5----5-7--|
B|----0-------0---|----0-------|
G|---7-------7----|---6--------|
D|--5--5----5-----|--4---4-----|
A|----------------|------------|
D|----------------|------------|


e|--5----5--3----3--|--3------3----3--|
B|----0-------0-----|----0------0-----|
G|---5-------5------|---5------4------|
D|--3---3---3---3---|--2---2--2---2---|
A|------------------|-----------------|
D|------------------|-----------------|


e|--7----7-------7--9---9--|
B|----0-------6-------8----|
G|---7-------7-------9-----|
D|--5---5---6---6---7---7--|
A|-------------------------|
D|-------------------------| 

v

Syd R Duke – Watch The Thunder Melting chords

 Watch The Thunder Melting - Syd R Duke


My Witness is the Empty Sky
Free download at http://sydrduke.bandcamp.com/


Capo 5

 Am G/B C Em F Am G/B C Em F Am G/B C 
walk right out of your head

            Em F 
and you're trying so hard just to stare out the mirror and

 Am G/B C 
crumble down to a thread

         Em F 
but you watch the thunder melting

 Am G/B C 
candles often misled

          Em F 
what you took for a brave attempt, ink lines are daggers and

 Am G/B C 
soon your page will be dead

         Em F             
but you watch the thunder melting on the horizon, on the horizon


 Am G/B C Em F Am G/B C Em F Am G/B C 
feel the smoke in the leaves

    Em F 
it wanders right by you, it summons up courage and

 Am G/B C 
flies you up to the trees

         Em F 
but you watch the thunder melting

 Am G/B C 
feel the curve of the breeze

         Em F 
and you feel yourself laughing as no-one can hear you now

 Am G/B C 
still they beg with you please

         Em F 
but you watch the thunder melting on the horizon, on the horizon


 Am G/B C F 
     there is no-one to blame

 Am G/B C F 
     if you lost the spark in your eyes

 Am G/B C F 
     tumbleweed on the plain

 Am G/B C F 
     and we miss you, and we miss you


 Am G/B C Em F Am G/B C Em F Am G/B C 
see the moon on the rise

         Em F 
feel it lighting the world, see the gleam in its eye as it

 Am G/B C 
wanders up in the sky

         Em F 
but you watch the thunder melting

 Am G/B C 
feel the colours fly

          Em F 
feel the beauty, the melody, feel the prosperity

 Am G/B C 
soon they say we will die

         Em F 
but you watch the thunder melting on the horizon, on the horizon


 Am G/B C F 
     there is no-one to blame

 Am G/B C F 
     if you lost the spark in your eyes

 Am G/B C F 
     tumbleweed on the plain

 Am G/B C F 
     and we miss you, and we miss you


 Am G/B C F 
     there is no-one to blame

 Am G/B C F 
     if you lost the spark in your eyes

 Am G/B C F 
     tumbleweed on the plain

 Am G/B C F 
     and we mis

Living This Life chords – The Dutchess And The Duke

 The Dutchess and the Duke: Living this Life


Intro:

 G C G 
(With the little riffs thrown in. See below)

 G 
If I tear all these walls down, I’m left alone with my memories 
             C G 
they’re all waiting for me in evenly measured up columns and rows.
 G 
If I walked in your black boots, if I walked in your black dress
       C G 
would you hold me tight or just beat me for wearing your clothes?

 Em 
It’s a dangerous lesson
 Am 
to be learned in the dark.
     G D 
But it’s living this life
     G C 
yeah it’s living this life
     G D 
well it’s living this life
          C  -  Bm  -  Am  -  D  -  G 
makes it hard.

 G 
Will I ever visit your tombstone, will I ever pay for my crimes
                  C G 
and I ask you if I’m on fire why am I so cold?
 G 
Will I ever walk through the city, will I ever look without seeing your face
    C G 
On every stranger and every forgotten soul?

 Em 
I don’t know if I’ll see you,
 Am 
but I’ll be on my guard
            G D 
cause it’s living this life
           G C 
yeah it’s living this life
           G D 
well it’s living this life
          C  -  Bm  -  Am  -  D  -  G 
makes it hard. (Repeat this line x4)

(Instrumental)

 Em 
When I finally crumble
 Am 
I won’t have to fall too far
            G D 
cause it’s living this life
           G C 
yeah it’s living this life
           G D 
well it’s living this life
          C  -  Bm  -  Am  -  D  -  G 
makes it hard. (x4)


Riffs
               G G 
e|----------------------------------|
B|-----0-1-0------------0-1-0-------|
G|-0-2-------0------0-2-------0-----|
D|----------------------------------|
A|----------------------------------|
E|----------------------------------|

               C G 
e|----------------------0-----------|
B|-----0-----1------1-3---3-1-0-----|
G|-0-2---2-0------------------------|
D|----------------------------------|
A|----------------------------------|
E|----------------------------------|


e|-----------0----------------------|
B|-----0-1-3---3-1-0----------------|
G|-0-2---------------2-0------------|
D|----------------------------------|
A|----------------------------------|
E|----------------------------------|