Tag: easy

Roll Me Easy chords – Glen Campbell

 Roll Me Easy
Glen Campbell

Intro   F Bb F C 

Verse 1

 F Bb F 
I am just a vagabond, a drifter on the run.
                                C Bb F 
An eloquent profanity, it just rolls right off my tongue.
                                       Bb C 
Now I have dinned in Palaces, I drank wine with Kings and Queens,
     F 
But darling sweet darling,
                C Bb F 
Now you’re the best thing I’ve ever seen.

Chorus 1

 (no Chords)                      Bb C F 
Singing roll me easy, roll me so nice and easy.
                              C F 
Take my independence with no apprehension, no tension, 
       Bb F C F Bb F 
We’ll walk and talk in sweet paradise.

Verse 2

 F Bb F 
Now I have crossed this country Lord, from Denver to the ocean.

But I’ve never met girls that could sing so sweet
       C Bb F 
As the angels that live in Houston.
 F Bb C F 
Singing harmony, and that you’re the sun. Sweet harmony.
           C Bb F 
You gotta raise your flag and I’ll beat my drum.

Outro

(beat G note 6th String)
Singing roll me easy. Now roll me so nice and easy.

I said roll me easy. Roll me so slow and easy.

I said roll me easy, roll me so slow and easy.
            F 
Ohh Yeahhh roll me easy.
                          Bb C F 
Why don’t you roll me so slow and easy 
                          Bb C F 
Why don’t you roll me so slow and easy   (repeat fade)


flyinglibra51
God Bless Glen Travis Campbell

Easy Way Out chords – Low Roar V2

 main of the song on this chords 
E|  0   0-------   0 
B|  5   10   5 3   5 10 10 3 3
G| (5)  10   4 0   5 10 9  4 0   \
D|--|----=------   | |  |  |       | 
A|--|-----------   | |  |  |     /
E|035 5/10 / 3 3   5 10 8  3 3

   Am Dm G G Am Dm C G G Am Dm G6 G 
Heard you call my name
 Am Dm C G 
While i'm passing up,
 Am Dm G6 G 
The mistake i've made,
                       Am Dm C G6 G 
It can't be turned around,

                      Dm Am C G 
I took the easy way out,
                      Dm Am C G 
I took the easy way out,
                      Dm C G Am 
I took the easy way out,

 Am Dm G6 G 
I would hound for one,
 Am Dm C G 
Before casting up,
 Am Dm G6 G 
The mistake i've made,
                       Am Dm C G6 G 
It can't be turned around,

                      Dm Am C G 
I took the easy way out,
                      Dm Am C G 
I took the easy way out,
                      Dm C G Am 
I took the easy way out,

 Dm Am C G     x2

 Dm Am C G 
I wanna feel something again memorable,
 Dm Am C G 
I wanna feel something again memorable,

 Dm Am C G     x2

 Dm Am C G 
I wanna feel something again memorable,
 Dm Am C G 
I wanna feel something again memorable,

Be Easy Tabs by Sharon Jones And The Dap-Kings V2

 -------------------------------------------------------------------------------
                        BE EASY - SHARON JONES & THE DAP KINGS
-------------------------------------------------------------------------------
: Ignacio Mendez-Nunez
 ignacio.mendeznunez

Tuning: Standard
 Intro                          this slide is very fast
e|---------------------------------------------------------------------------|
B|--8b--8b--8b-8b-8b--8------------------------------------------------------|
G|--8b--8b--8b-8b-8b--8------------------------------------------------------|
D|------------------------12--10---------------------------------------------|
A|--------------------------------11\10-----8b-------------------------------|
E|---------------------------------------------------------------------------|

Main Riff
e|--------10--------------------------10-------------------------------------|
B|--------10--------------------------10-------------------------------------|
G|--------11--------------------------11-------------------------------------| x4
D|-------------/12-10-----------------------/12-10---------------------------|
A|---------------------------------------------------------------------------|
E|--10-------------------9-10-----------------------9------------------------|

Some People say..................you gotta fight
e|--------10---------------------------------10------------------------------|
B|--------10---------------------------------12------------------------------|
G|--------11---------------------------------10------/12-10------------------|
D|-------------/12-10------------------------12----------------------------=-|
A|-----------------------------------9-10------------------------------------|
E|--10-------------------9-10----------------------------------9-------------|


Fill/Lick
e|---------------------------------------------------------------------------|
B|-------------8b-8b---------------------------------------------------------|
G|-------------8b-8b---------------------------------------------------------|
D|---12p10h12-----------12--10-----------------------------------------------|
A|---------------------------------------------------------------------------|
E|---------------------------------------------------------------------------|

@ 1:17 (Complicated but stick with me)

   F     G    D               Fast lick     C       G       A7  D   Csus4  C
e|---------------------------------------------------------------------------|
B|-10---12----7-----------------------------------------3----5---7----4----3-|
G|-10---12----7-----------------------------------------4----6---7----3----3-|
D|-10---12----7-----------------10----------5-----------5----5---7----3----3-|
A|-8----10----5-----------------10--8--7--5-5h7--5--5---5--------------------|
E|--------------------------------------------------5h7-3--------------------|


   F     G    D                      C     G    A    Bb
e|---------------------------------------------------------------/10--8--6---|
B|-10---12----7--------------------------------------------------------------|
G|-10---12----7--------------------------------------------------/10--8--7---|
D|-10---12----7----------10----------5-----5----7----8-----------------------|
A|-8----10----5----------10--8--7--5-5h7---5---7-----8-------8---------------|
E|-----------------------------------------3----5----6--8h10-----------------|


************************************

| /   slide up
| \   slide down
| h   hammer-on
| p   pull-off
| ~   vibrato
| +   harmonic
| x   Mute note
| b   Bend

************************************

Go Easy chords – Mac Demarco

 Mac Demarco
Go Easy
Salad Days (2014)
Captured Tracks

Here is my version of Go Easy, I think you can play along with the album if you tune your guitar to 452Hz.
I've posted my version below aswell if anyone wants to listen to that for the way i've played it. I've also
posted the intro tab below the chords, however this is not relevant to the capo!!



Chords: (Relative to capo)

G6   3-2-0-0-0-0
F#m7 2-4-2-2-2-2
A*   X-0-4-0-2-0
Em   0-7-9-0-8-0
 Bm    X-2-4-0-3-0

Capo 2

Intro: G6, F#m7, A* X4

Verse:
 G6 F#m7       A*
Pack it up and leave it, leave it all behind you
 G6 F#m7            A*
Start it fresh in someone else’s town
     G6 F#m7      A*
And though we may be leaving, I’ll be right beside you
    G6 F#m7            A*
To pick you up until you come around

Chorus:
    Em Bm       A*
So please, go easy with my baby
 Em Bm       A*
Please, go easy
    Em Bm       A*
Please, go easy with my baby
 Em Bm       A*
Please, go easy

Break: G6, F#m7, A* X4

Verse:
 G6 F#m7        A*
Down here can be tough, without your friends beside you
     G6 F#m7              A*
You built it up, just to knock it down
    G6 F#m7    A*
So when you’re feeling rough, I’ll be right behind you
    G6 F#m7            A*
To pick you up until you come around

Chorus:
    Em Bm       A*
So please, go easy with my baby
 Em Bm       A*
Please, go easy
    Em Bm       A*
Please, go easy with my baby
 Em Bm       A*
Please, go easy     X2

Outro: G6, F#m7, A* X4
-------------------------------------------------------------------------------------------------------------
Intro/Break/Outro Lead riff:

e|----------------------------------------------------------|
B|------12--------------------------------------------------|
G|-11/13--13-11-13-11-13/14/13-11---------------------------|
D|-------------------------------13-14-13-13/11-13/11-------|
A|---------------------------------------------------11-14--|
E|----------------------------------------------------------|

Am I That Easy To Forget chords – Skeeter Davis

 Am I That Easy To Forget:Skeeter Davis.
#11 on Hot Country on RCA Records in
1960.

INTRO:  B 

#1.
 B 
You say you've found somebody new..
 B E 
but that won't stop my lovin' you.
 E B 
I just can't let you walk away..
 B Gb 
forget the love I have for you.

#2.
 Gb B 
Guess I could find somebody, too..
 B E 
but I don't want no one but you.
 E B 
How could you leave without regret..
 Gb B 
am I that easy to forget?

#3.
 B E 
Before you leave be sure you find..
 E B 
you want her love much more than mine.
 B E 
Then, I'll just say we've never met..
 Gb B 
if I'm that easy to forget.


INTERLUDE:  B E B Gb B 

#4.
 B E 
Before you leave be sure you find..
 E B 
you want her love much more than mine.
 B E 
Then, I'll just say we've never met..
 Gb B Gb B 
if I'm that easy to forget.


A sixties smash from Kraziekhat.

Easy chords – Commodores V4

 Artist: Commodores
Song: Easy
 Lionel Richie
 Commodores
: DJ
26th Oct 2014

CAPO: 1st fret (Sounds in the key of Ab) 

Chord names and fret positions are relative to the capo:

 G       = 320033   G4     = 320013   F/C    = x33211   Cm       = x35543
 Bm      = x24432   Fmaj7  = 103210   Bb/D   = xx0221   Eb7sus4  = xx1324
 Am7     = x02213   Em7    = 022030   C      = x32010   Bbm7/Eb  = x66666
 D7sus4  = xx0213   Dm7    = xx0211   Am7/D  = x55555   Gb       = 244322
 F       = xx3211   Dm7/G  = 300211   Bbm7   = x13121   Db/F     = xx3121
 C/E     = xx2010   Bb/F   = 113331   Ab     = 466544   Db/E     = xx1121
 C/D     = xx0010

[* If the key change in Chorus 4 happens to be too tricky,
 go back to Chorus 2 and use that as the final chorus instead]

*****************************************************************

[Intro]
    G Bm Am7 D7sus4 G Bm Am7 
|  /  /  /  /  |  /  /  /  /  |  /  /  /  /  |  /  /  /  /  |


[Verse 1]
 G Bm Am7 D7sus4 
   I know it sounds funny, but I just can't stand the pain,
 G Bm Am7 ll never tell’



 <span>F <span>C<lt;span>Dm 
We will not apologize for this
 pan>Am7 <span>pan> 
   Seems to me, girl, you know I've done all I can,
 G Bm Am7 D7sus4 
   You see, I begged, stole and I borrowed, ...yeah!


[Chorus 1]
                        G Bm Am7 
Oo---, that's why I'm easy----,
                          (Ah, ah -ah, ah---!)

    D7sus4 G Bm Am7 
I'm easy like Sunday morning--------,
                          (Ah, ah -ah, ah---!)

 D7sus4 G Bm Am7 
       That's why I'm easy------------------,
                          (Ah, ah -ah, ah---!)

    D7sus4 F C/E C/D G 
I'm easy like Sunday mor------------ning!


[Verse 2]
 G Bm Am7 D7sus4 
    Why in the world would anybody put chains on me?        Yeah!
 G Bm Am7 D7sus4 
    I've paid my dues to make it,
 G Bm Am7 D7sus4 
    Everybody wants me to be what they want me to be,
 G Bm Am7 
    I'm not happy when I try to fake it, ...no!


[Chorus 2]
 D7sus4 G Bm Am7 
       Oo, that's why I'm easy----,    yeah,
                               (Ah, ah -ah,  ah---!)

    D7sus4 G Bm Am7 
I'm easy like Sunday morning--------,
                          (Ah, ah -ah, ah---!)

 D7sus4 G Bm Am7 
       That's why I'm easy------------------,
                          (Ah, ah -ah, ah---!)

    D7sus4 F C/E C/D G 
I'm easy like Sunday mor------------ning!


[Verse 3]
 G4 G Fmaj7 Em7 Dm7 Dm7/G 
       I wanna be high------, so  high,
            Fmaj7 Em7 Dm7 Dm7/G 
I wanna be free to know the things I do are right,
            Fmaj7 Em7 Dm7 Dm7/G 
I wanna be free---

Easy Easy Tabs by King Krule V3

 Standard Tuning

Intro/Verse (part 1)

Well same old Bobby, same old beat
Well yeah they got nothing on me
The same old clutch, same old streets
But yeah they got nothing on me

E[-----------------|-----------------|-----------------|-----------------]
B[-----------------|-----------------|-----------------|-----------------]
G[-----------------|-----------------|-----------------|-----------------] (x1)
D[-----------------|-----------------|-----------------|-----------------]
A[-----------------|-----------------|-----------------|-----------------]
E[-0-0-0-0-0-0-0-0-|-0-0-0-0-0-6-6-6-|-7-7-7-7-7-7-7-7-|-7-7-7-7-7-6-6-6-]

E[-----------------|-----------------|-----------------|-----------------]
B[-----------------|-----------------|-----------------|-----------------]
G[-----------------|-----------------|-----------------|-----------------] (x3)
D[-----------------|-----------------|-----------------|-----------------]
A[-----------------|-----------------|-----------------|-----------------]
E[-0-0-0-0-0-0-0-0-|-0-0-0-0-0-4-4-4-|-7-7-7-7-7-7-7-7-|-7-7-7-7-7-6-6-6-]



Verse (part 2)

And easy come and easy go
Well yeah I'm sure I told you so
Well they just want you for your dough
Man I'm sure I told you so
And with your dead-end job
That's been eating away your life
You feel a little inside
The trouble and strife
And now you spend your evenings
Searching for another life
And yeah I think mate
I think you've got them in your sights

E[-----------------|-----------------|-----------------|-----------------]
B[-----------------|-----------------|-----------------|-----------------]
G[-----------------|-----------------|-----------------|-----------------] (x8)
D[-----------------|-----------------|-----------------|-----------------]
A[-6-6-6-6-6-6-6-4-|-4-4-4-4-4-------|-6-6-6-6-6-6-6-6-|-6-6-6-6-6-6-6-6-]
E[-0-0-0-0-0-0-0-0-|-0-0-0-0-0-4-4-4-|-7-7-7-7-7-7-7-7-|-7-7-7-7-7-6-6-6-]

E[-----------------|-----------------]
B[-----------------|-----------------]
G[-----------------|-----------------]
D[-----------------|-----------------]
A[-6-6-6-6-6-6-6-4-|-----------------]
E[-0-0-0-0-0-0-0-0-|-----------------]



Chorus

Well, easy easy
There's no need to take that tone
Well easy
I'm on the telephone
Man just leave us alone

E[-----------------|-----------------|-----------------|-----------------]
B[-4---------------|---------------3-|-2---------------|-----------------]
G[-3---------------|---------------2-|-1---------------|-----------------]
D[-4---------------|---------------3-|-2---------------|-----------------]
A[-2---------------|---------------1-|-0---------------|-----------------]
E[-----------------|-----------------|-----------------|-----------------]

E[-----------------|-----------------|-----------------|-----------------]
B[-4---------------|-----------------|-9---------------|-----------------]
G[-3---------------|-----------------|-8---------------|-----------------]
D[-4---------------|-----------------|-9---------------|-----------------]
A[-2---------------|-----------------|-7---------------|-----------------]
E[-----------------|-----------------|-----------------|-----------------]



Verse 2

Ow no I should've kept my receipts
Cause the sandwich I bought
Yeah it's been off for a week
And Tesco's stealing my money
When positivity seems hard to reach
I keep my head down and my mouth shut
Cause if you going through hell
We just keep going

(tab mostly the same as first verse)



Chorus/Outro

You're easy
So easy
You're easy
Man just leave us alone?
I'll be one minute on the phone

E[-----------------|-----------------|-----------------|-----------------]
B[-4---------------|---------------3-|-2---------------|-----------------]
G[-3---------------|---------------2-|-1---------------|-----------------]
D[-4---------------|---------------3-|-2---------------|-----------------]
A[-2-----

Easy Living chords – Billie Holiday

 Easy Living
Billie Holiday (1937)

m = minor
M = major

 Ab Adim7 Bbm7 Eb7 
Living for you is easy living
      Ab Fm Db Dbm 
It's easy to live when you're in love
     Ab F7 
And I'm so in love
         Bbm7 Eb7 Ab  Ao7  Bbm7 Eb7 
There's nothing in life but you

 Ab Adim7 Bbm7 Eb7 
I never regret the years I'm giving
         Ab Fm Db Dbm 
They're easy to give when you're in love
     Ab F7 Bbm7 Eb7 Ab Db Ab B7 
I'm happy to do whatever I do for you

     E B7 E 
For you maybe I'm a fool, but it's fun
 B7 E 
People say you rule me with one 
              Dbm 
Wave of your hand
               Eb7 
Darling, it's grand
      Eb7 
They just don't understand

 Ab Adim7 Bbm7 Eb7 
Living for you is easy living
      Ab Fm Db Dbm 
It's easy to live when you're in love
     Ab F7 
And I'm so in love
         Bbm7 Eb7 Ab 
There's nothing in life but you

Easy To Die Tabs by Dsis

 Intro/Chorus:
D|---------------------------|---------------------------|
A|---------------------------|---------------------------|
F|---------------------------|---------------------------|
C|3--3--3-3-3-3--3--3--3-3-3-|1--1--1-1-1-6--6--6--6-6-6-|
G|3--3--3-3-3-3--3--3--3-3-3-|1--1--1-1-1-6--6--6--6-6-6-|
C|3--3--3-3-3-3--3--3--3-3-3-|1--1--1-1-1-6--6--6--6-6-6-|

D|---------------------------|---------------------------|
A|---------------------------|---------------------------|
F|---------------------------|---------------------------|
C|3--3--3-3-3-3--3--3--3-3-3-|1--1--1-1-1-8--8--8--8-8-8-| x 2
G|3--3--3-3-3-3--3--3--3-3-3-|1--1--1-1-1-8--8--8--8-8-8-|
C|3--3--3-3-3-3--3--3--3-3-3-|1--1--1-1-1-8--8--8--8-8-8-|

Pre-Intro:
D|-----|
A|-----|
F|-----|
C|12\\3|
G|12\\3|
C|12\\3|

Pre-Chorus:
D|---------------|
A|---------------|
F|---------------|
C|0//12~~~~~12\\3|
G|0//12~~~~~12\\3|
C|0//12~~~~~12\\3|

After Chorus:
D|----|
A|----|
F|----|
C|8\\0|
G|8\\0|
C|8\\0|

Bridge:
D|-----------------------|---------------------|
A|-----------------------|---------------------|
F|-----------------------|---------------------|
C|3---3---3--1---1---1---|6---6---6--8--8--6--6| x 2
G|3---3---3--1---1---1---|6---6---6--8--8--6--6|
C|3---3---3--1---1---1---|6---6---6--8--8--6--6|

Solo (Play with Wha-wha):
D|------------------------|    D|------------------------|
A|------------------------|    A|------------------------|
F|10~~~~~12~~~~-----------|    F|10~~~~~12~~~~15~~~~~15\0|
C|-------------7~~~~~5-7-5| x3 C|------------------------|
G|------------------------|    G|------------------------|
C|------------------------|    C|------------------------|

Outro:
D|---------------------------------------------|
A|---------------------------------------------|
F|---------------------------------------------|
C|3~-------------------------------------------| (Let it ring out)
G|3~-------------------------------------------|
C|3~-------------------------------------------|

Easy chords – Swimming With Dolphins

 No Capo




 C 
Tell me when it's over,
              Am F 
I will begin pulling the boards from my front door once it is safer then,
              G 
I'll show my face again

 C 
Yeah I want you closer,
                   Am F 
I've been livin', just like a ghost for the most part I'm feeling dissonant,
              G 
And you're indifferent

             F 
But, you're still not sure
             Am 
Yeah you're still not sure
                F 
Let me make it easier

                   F 
You don't have to call,
                        Am 
You don't have to say, "I love you" again,
                           Fmaj7 
If you want a love that's easy
              G 
Then I would rather have nothing

 C 
Maybe when we're older it'll sink in
 Am F 
Cause heaven knows this ain't blowin' over anytime too fast,
          G 
But everything will pass

 C 
Yeah I'm getting bolder with my thinking
 Am F 
You've got me wrong for so long I can't even turn my back
             G 
Without you falling off track
             F 
But, you're still not sure
             Am 
Yeah you're still not sure
                F 
Let me make it easier

                   F 
You don't have to call,
 Fmaj7 Am 
You don't have to say, "I love you" again,
                           F 
If you want a love that's easy
 Fmaj7 G 
Then I would rather have nothing

 F 
Never been so clear as now
 Am 
Never been so clear as now

              F 
So if you're still not sure
           Am 
If you're still not sure
                F 
Let me make it easier

Easy To Be Free chords – Ricky Nelson

 Easy To Be Free:Ricky Nelson.
Album - Rick Nelson In Concert - on
DECCA Records in 1969.

INTRO:  Db F#  (x3)  Db B F# 

#1.
 Db F# Bbm F# 
Did you ever want to go....where you’ve never 
        Abm Db 
been before?
         F# Db F# 
Did you ever want to know things you’ve never 
         Db 
known before?

CHORUS:
 Ebm F# Ab Ebm Eb F#  
I’ll take you there with me.....and maybe then 
 Ab Db B Db F# Db 
you’ll see, it’s easy....to be free.

#2.
 Db F# Bbm F#  
Did you ever want to fly....over rainbow skies 
    Db 
so high?
 Db F# Db Bbm F# 
Did you ever wonder why.....people tell you not 

to try?

CHORUS:
 Ebm F# Ab Ebm Eb F#  
I’ll take you there with me.....and maybe then 
 Ab Db B Db F# Db 
you’ll see, it’s easy....to be free.
 Db F# B Bbm Db 
It’s so easy....to be free, yeah.


INTERLUDE:  Db B F# Db F# Db Bbm F#  

BRIDGE:
 Ebm F# Db Bbm F# Ebm 
I stood and waited where the river runs........it felt 
    Ab F# Db 
so good to feel the morning sun.
 Db F# Db F# Db 
And after all is said and done..I’m free. 

#3.
 Db F# Db Bbm F# Db 
Did you ever wonder why....life goes on even though you
 F# 
die?
 Db F# Db F# 
Did you ever want to ride, a painted pony to the sky?

CHORUS:
 Ebm Ab Ebm Ab 
I’ll take you there with me and maybe then you’ll see..
      Db B Db 
it’s easy....to be free, yeah.
 F# Db B Db 
It’s so easy to be free, yeah.


INTERLUDE:  Db B F# Db F# Db Bbm F#  


BRIDGE:
 Ebm F# Db Bbm F# Ebm 
I stood and waited where the river runs........it felt 
    Ab F# Db 
so good to feel the morning sun.
 Db F# Db F# Db 
And after all is said and done..I’m free. 

#4.
 Db F# Db Bbm F# Db 
Did you ever wonder why....life goes on even though you
 F# 
die?
 Db F# Db F# 
Did you ever want to ride, a painted pony to the sky?

CHORUS:
 Ebm Ab Ebm Ab 
I’ll take you there with me and maybe then you’ll see..
      Db B Db 
it’s easy....to be free, yeah.
 F# Db B Db 
It’s so easy to be free, yeah.


OUTRO:  Db B Bbm F# Db 


A sixties smash from Krazie

Easy Lover chords – Phil Collins

 Heres what my ear says... sounds good to me (and my bad ear). Lol.

Thanks for rating! Enjoy, Cloud9



Chorus:
      Fm 
Easy lover
               C# D# Fm C#   
 She'll get a hold on you believe it
 D# Fm 
 Like no other
             C# D# Fm C#   
 Before you know it you'll be on your knees
         D# Fm 
 She's an easy lover
                   C# D# Fm C#    
 She'll take your heart but you won't feel it
        D# Fm 
 She's like no other
               C# D# Fm 
 And I'm just trying to make you see



            C#         
 She's the kind of girl you dream of
 C#             
 Dream of keeping hold of
        C# D# D#6 Fm     
 You'd better forget it
      ... 
 You'll never get it
           C#    
 She will play around and leave you
  C# 
 Leave you and deceive you
  C# D# D#6 Fm     
 Better forget it
    ....
 Oh you'll regret it
 A#m Cm Fm   
 No you'll never change her, so leave it, leave it
 A#m Cm Fm 
     Get out quick cos seeing is believing
           A#m Cm 
 It's the only way
              F# 
 You'll ever know


Chorus:
      Fm 
Easy lover
               C# D# Fm C#   
 She'll get a hold on you believe it
 D# Fm 
 Like no other
             C# D# Fm C#   
 Before you know it you'll be on your knees
         D# Fm 
 She's an easy lover
                   C# D# Fm C#    
 She'll take your heart but you won't feel it
        D# Fm 
 She's like no other
               C# D# Fm 
 And I'm just trying to make you see


             C# 
 You're the one that wants to hold her
 C# 
 Hold her and control her
         C# D# D#6 Fm     
 You'd better forget it
      ... 
 You'll never get it
             C# 
 For she'll say there's no other
 C# 
 Till she finds another
         C# D# D#6 Fm     
 You'd better forget it
      ... 
 You'll never get it
 
   A#m Cm Fm   
 And don't try to change her, just leave it, leave it
  A#m Cm Fm   
 You're not the only one, ooh seeing is believing
           A#m Cm 
 It's the only way
              F# 
 You'll ever know, oh

   A#m Cm Fm   
 No don't try to change her, just leave it, leave it
   A#m Cm Fm   
 You're not the only one, ooh seeing is believing
           A#m Cm 
 It's the only way
              F# 
 You'll ever know, oh

Chorus:
      Fm 
Easy lover
               C# D# Fm C#   
 She'll get a hold on you believe it
 D# Fm 
 Like no other
             C# D# Fm C#   
 Before you know it you'll be on your knees
         D# Fm 
 She's an easy lover
                   <s

The Easy Mark The Old Maid Tabs by Bad Books

 The Easy Mark & The Old Maid by Bad Books

I learned this song by watching a video of Kevin Devine playing it solo - it matches
the album version.

Capo 2nd fret
Chords are relative to capo

Verse:

  Am Gadd11/B  G

E--x---x-------3-2-|
B--1---1-------0-0-|
G--2---0-------0-0-|
D--2---0-------0-0-|
A--0---2-------x-x-|
E--x---x-------3-3-|

Chorus:

   C    D   Em  G   C     G

E--00-3-2---0-0-3---x--x--3-|
B--11-1-3---0-0-0---5--4--0-|
G--00-0-2---0-0-0---5--5--0-|
D--22-2-0---2-0-0---5--5--0-|
A--33-3-x---2-0-x---3--3--x-|
E--xx-x-x---0-2-3---x--x--3-|

after the second chorus going into the bridge he slides up from the G to this chord:

E--7-|
B--0-|
G--0-|
D--0-|
A--0-|
E--7-|

Bridge:

   Em  A   C Cm

E--7---5---x-x---3-|
B--8---5---5-4---3-|
G--9---6---5-5---4-|
D--9---7---5-5---5-|
A--7---7---3-3---5-|
E--x---5---x-x---3-|

second time through:

   Em  A   C   Cm  D

E--7---5---x---x---2-|
B--8---5---5---4---3-|
G--9---6---5---5---2-|
D--9---7---5---5---0-|
A--7---7---3---3---x-|
E--x---5---x---x---x-|

Ending:
alternate your picking between the bass notes and the lead notes

E--0-2-3-0-3---xx-x-3--|
B--0-----------55-4-3--|
G--0-----------55-5-4--| X4
D--0-----------xx-x-5--|
A--x-----------xx-x-5--|
E--3-3-3-3-3---33-3-3--|

E No Easy intro chords – P Square

 First time here. Hopefully these chords are close to accurate. Let me know what 
you think. You can also place your capo anywhere to suit your voice. Have a fun jamming seshh!

 Am - D - Em - Em Am D Em Em 
 Baba God na your hand work hey.

     Am D Em 
No be lie iye, na your hand work hey. 

               Am 
I say, e no easy hey.

  D Em   
Oh oh, oh oh... To dey sing and
dey dance and the people dey rejoice

 Am D Em Am D 
hey. My brother, my sister no be today. 
     Em                             
If e good or bad, make we dey thank God

 Am D 
hey. Baba God na your hand work

 Em 
hey. 


These chords pretty much runs through the whole song.

Loving You Is Easy chords – Union J

 The whole song is
  Bb Dm F C
However if you're a novice you can use  C Em G D with capo on 1 (or 2 or 3 depends which
one sounds better to you). I know these are not perfect but there are no other versions
online yet and this was the best I could do.


 Bb ( C )         Dm ( Em )        F ( G )
    We were lost in the middle
          C ( D )            Bb
Like bottles in the ocean
          Dm F
But we found one another
           C Bb
Like the answer to a question
            Dm F
Like words to a love song
           C Bb
Like a river to the red sea
          Dm F
Finding you was so hard
         C Bb
But loving you is easy
      Dm F C Bb
Loving you is easy, loving you is easy
  Dm F
Finding you is so hard
     C Bb
Loving you is easy

[Instrumental]


We were lost in the middle
Like bottles in the ocean
But we found one another
Like the answer to a question
Like words to a love song
Like a river to the red sea
Finding you is so hard

But loving you is easy
Loving you is easy, loving you is easy
Finding you is so hard
But loving you is easy

Loving you, I've been loving you
Loving you, I've been loving you
Loving you, I've been loving you
Loving you, I've been loving you
Loving you, I've been loving you
Loving you, I've been loving you

Finding you is so hard

I think I've finally found the one
Here's come the change
I think the change has just begun
I'm not the same
I think I've finally found the one
Here's come the change
I think the change has just begun
I'm not the same
I think I've finally found the one

We were lost in the middle
Like bottles in the ocean
But we found one another
Like the answer to a question
Like words to a love song
Like a river to the red sea
Finding you is so hard
But loving you is easy

Forgiving You Was Easy chords – Willie Nelson

 C 
Forgiving you was easy but forgetting 
                           F 
Seems to take the longest time
        G7 
I just keep thinking 
                                  C  
And your memory is forever on my mind


You know I'll always love you 
                                           F 
And I can't forget the days when you were mine
    G7 
Forgiving you is easy 
                                          C 
But forgetting seems to take the longest time


The bitter fruit of anger growing 
                               F 
Growing from the seeds of jealousy
         G7 
Oh what a heartache but I forgive 
                        C 
The things you said to me


Cause I believe forgiving 
                                         F 
Is the only way that I'll find peace of mind
     G7 
And forgiving you is easy 
                                          C 
But forgetting seems to take the longest time
 

The years have passed so quickly as once again 
                           F  
Fate steals a young man's dreams
        G7 
Of all the golden years 
                                  C 
And growing old together you and me


You asked me to forgive you 
                                    F 
You said there was another on your mind
    G7 
Forgiving you is easy 
                                          C 
But forgetting seems to take the longest time

    G7 
Forgiving you is easy 
                                          C 
But forgetting seems to take the longest time

Easy Rider – Hunter chords

Intro

E|--------------------------------|---------------------------|
B|------------2b(3)r(2)-0-2-0-----|---------------------------|
G|------------2b(3)r(2)-0-2-0-----|---------------------------|
D|-2--------------------------2-0-|-2-------------------------|
A|-2------------------------------|-2-------------------------|
E|-0------------------------------|-0------------(3)/(10)\(0)-|
                                                 long slide

E|--------------------------------|---------------------------|
B|------------2b(3)r(2)-0-2-0-----|---------------------------|
G|------------2b(3)r(2)-0-2-0-----|---------------------------|
D|-2--------------------------2-0-|-2-------------------------|
A|-2------------------------------|-2-------------------------|
E|-0------------------------------|-0-------------------0/10~-|


Verse 1

E|-----------------|-----------------|-----------------|-----------------|
B|-----------------|-----------------|-----------------|-----------------|
G|-----------------|-----------------|-----------------|-----------------|
D|-----------------|-----------------|-----------------|-----------------|
A|-2-2-2-2-2-2-2-2-|-2-2-2-2-2-2-2-2-|-2-2-2-2-2-2-2-2-|-2-2-2-2-2-2-2-2-|
E|-0-0-0-0-0-0-0-0-|-0-0-0-0-0-0-0-0-|-0-0-0-0-0-0-0-0-|-0-0-0-0-0-0-0-0-|
   pm...................................................................



E|-----------------|-----------------|-----------------|-----------------|
B|-----------------|-----------------|-----------------|-----------------|
G|-----------------|-----------------|-----------------|-4-4-4-4-4-4-4-4-|
D|-2-2-2-2-2-2-2-2-|-2-2-2-2-2-2-2-2-|-4-4-4-4-4-4-4-4-|-4-4-4-4-4-4-4-4-|
A|-0-0-0-0-0-0-0-0-|-0-0-0-0-0-0-0-0-|-2-2-2-2-2-2-2-2-|-2-2-2-2-2-2-2-2-|
E|-----------------|-----------------|-----------------|-----------------|
   pm.................................................



E|-----------------|-----------------|-----------------|-----------------|
B|-----------------|-----------------|-----------------|-----------------|
G|-2-2-2---2-2-2-2-|-2-2-2---2-2-2-2-|-----------------|-4-4-4-4-4-4-4-4-|
D|-2-2-2---2-2-2-2-|-2-2-2---2-2-2-2-|-4-4-4-4-4-4-4-4-|-4-4-4-4-4-4-4-4-|
A|-0-0-0---0-0-0-0-|-0-0-0---0-0-0-0-|-4-4-4-4-4-4-4-4-|-2-2-2-2-2-2-2-2-|
E|-------3---------|-------3---------|-2-2-2-2-2-2-2-2-|-----------------|




Ref 1/2/3/4

E|------------------------------|---------------------------|
B|------------------------------|---------------------------|
G|--------------2-----2---2-----|---------------------------|
D|-2------------2-----2---2-----|-2---------0h2--0----------|
A|-2------------0-----0---0-----|-2----------------2---0-2~-|
E|-0----------3---------3---3b~-|-0------------------3------|
             pm        pm                        pm.......


E|-----------------|-----------------|-----------------|-----------------|
B|-----------------|-----------------|-----------------|-----------------|
G|-2-2-2---2-2-2-2-|-2-2-2---2-2-2-2-|-----------------|-7-7-7-7-7-4-4-4-|
D|-2-2-2---2-2-2-2-|-2-2-2---2-2-2-2-|-4-4-4-4-4-4-4-4-|-x-x-x-x-x-x-x-x-|
A|-0-0-0---0-0-0-0-|-0-0-0---0-0-0-0-|-2-2-2-2-2-2-2-2-|-5-5-5-5-5-2-2-2-|
E|-------3---------|-------3---------|-----------------|-----------------|



                                 Ref_1.............. Ref_2&4............. Ref_3.............
E|------------------------------|-------------------|-------------------|------------------|
B|------------------------------|-------------------|-------------------|------------------|
G|--------------2-----2---2-----|-------------------|-------------------|------------------|
D|-2------------2-----2---2-----|-2-----------------|-2-----------------|------------------|
A|-2------------0-----0---0-----|-2-----------------|-2--------/x/x/x/x-|-2-2---2-2---2-2--|
E|-0----------3---------3---3b~-|-0-----0-2h3/(10)~-|-0--------/x/x/x/x-|-0-0---0-

Easy Rider (taby) – Hunter chords

----------------------------------------------------------------------
---------------------------16tr17tr18tr19tr20s0-----------------------
----------------------------------------------------------------------
--2-7b-5-7b----2-7b-5-7b----------------------------------------------
--2---------7--2--------7---------------------------------------------
--0------------0------------------------------------------------------

zwrotka
----------------------------------------------------------------------
----------------------------------------------------------------------
-------------------------------------------------------------444444---
----------------------------------2222222222222222-4444444444444444---
-22222222222222222222222222222222-0000000000000000-2222222222222222---
-00000000000000000000000000000000-------------------------------------


----------------------------------------------------------------------
----------------------------------------------------------------------
----------------------------------------------------------------------
-2222222222222222----------444444444----------------------------------
-0000000000000000-44444444-222222222----------------------------------
------------------22222222--------------------------------------------

easy rider..
----------------------------------------------------------------------
----------------------------------------------------------------------
-----2----------4b-2--2-4~~-------------------------------------------
-2---2-------2------4-------2222222222222222-44444444-7777-4444-2-----
-2---0-00000-2--------------0000000000000000-22222222-5555-2222-2-----
-0-----------0--------------------------------------------------0-----


----------------------------------------------------------------------
----------------------------------------------------------------------
-2---------2----------------------------------------------------------
-2---------2--2-------------------------------------------------------
-0-0-0-0-0-0--2--------5~~--------------------------------------------
--------------0--0-2-4------------------------------------------------

II zwrotka                      dalej jak w poprzednim ref
----------------------------------------------------------------------
----------------------------------------------------------------------
------------------------------------2--4---12s------------------------
---------------------22-22-22-22-xx-2--4---12s------------------------
-22-22-22-22-xx-5~~--00-00-00-00-xx-0--2---12s------------------------
-00-00-00-00-xx-------------------------------------------------------

III zwrotka
-----------------------------------------------------------------------
-----------------------------------------------------------------------
-------------------------------------2-4-------------------------------
-21s---------------------------------2-4-------------------------------
-21s---------------------------------0-2-------------------------------
-21s-00-0000-00-0000-00-0000-00-0000-----------------------------------

ref                             dalej ref nornmalnie
-----------------------------------------------------------------------
-----------------------------------------------------------------------
-----------------------------------------------------------------------
-22222222222222----------4---------------------------------------------
-00000000000000-4444444--4---------------------------------------------
----------------2222222--2---------------------------------------------

solidny dom......                       refren na koncu slide
---------------------------------------------------------------------
---------------------------------------------------------------------
---------------------------------------------------------------------
------------------------------------