Tag: end

End Of Me Tabs – A Day To Remember Vsion 4

 Intro-Verse (Clean Guitar)
E----------------------------------------------------------------------------------------------------
B--3-----3-------------------------------------------------------------------------------------------
G----4-2---4--2---2-2----1---2-1---1---2-1-----------------------------------------------------------
D---------------4-----4----2-----2---2-----2---------------------------------------------------------
A--2-------------------------------------------------------------------------------------------------
E-------------2----------0---------------------------------------------------------------------------(6x)



Chorus (1st Guitar)
E----------------------------------------------------------------------------------------------------
B----------------------------------------------------------------------------------------------------
G----------------------------------------------------------------------------------------------------
D--4444--4444--2222----------------------------------------------------------------------------------
A--2222--4444--2222----------------------------------------------------------------------------------
E--2222--2222--0000----------------------------------------------------------------------------------(3x)


Chorus (2nd Guitar)
E-------------------------------------------------------------------------------------------------------
B-------------------------------------------------------------------------------------------------------
G--16-16-14-14-13-14/14---------------------------------------------------------------------------------
D-------------------------------------------------------------------------------------------------------
A--14-14-12-12-11-11/12---------------------------------------------------------------------------------
E-------------------------------------------------------------------------------------------------------(3x)




Oh, You'll be the end of me...(2nd Verse) (1st guitar) Clean Guitar
E----------------------------------------------------------------------------------------------------
B--3-----3-------------------------------------------------------------------------------------------
G----4-2---4--2---2-2----1---2-1---1---2-1-----------------------------------------------------------
D---------------4-----4----2-----2---2-----2---------------------------------------------------------
A--2-------------------------------------------------------------------------------------------------
E-------------2----------0---------------------------------------------------------------------------



Solo-2nd Verse   (2nd Guitar)   (Delay)                                                              Pre Chorus
E-----------------------------------------------------------------------------------------------------
B-----------------------------------------------------------------------------------------------------
G--6/7-9-7-6-11-9-9-----------------------------------------------------------------------------------     
D-------------------11-9----------------------------------------------------------2-------------------
A---------------------------------------------------------------------------------2--------------------
E---------------------------------------------------------------------------------0--------------------(4x)


Chorus (1st Guitar)
E----------------------------------------------------------------------------------------------------
B----------------------------------------------------------------------------------------------------
G----------------------------------------------------------------------------------------------------
D--4444--4444--2222----------------------------------------------------------------------------------
A--2222--4444--2222----------------------------------------------------------------------------------
E--2222--2222--0000---------------------------------------------------------------------------

The End Of All Things Tabs – Panic! At The Disco Vsion 3

 : jcameronp
Tuning: standard, capo on 1 (notes relative to capo, so fret 7 with capo on 1 is actually played at fret 8)


Intro:

(make sure to emphasize the high e of every chord)

e|-0~-3-5-7~-2~-0~-3-5--10~-5~-3~-3-5-7~-2~-0~-3-5-10-5-3~-------------------|
B|-0~-----0~-3~-0~------7~--x~-0~-----0~-3~-0~----------0~-------------------|
G|-0~-----0~-2~-0~------7~--4~-0~-----0~-2~-0~----------0~-------------------|
D|-2~-----5~-0~-2~------7~--4~-2~-----5~-0~-2~----------2~-------------------|
A|-3~-----7~----3~------9~--5~-3~-----7~----3~----------3~-------------------|
E|---------------------------------------------------------------------------|

Verse:

Whether near or far...

e|-3-5-7~-2~-0~-3-5-10~-5~-3~-3-5-7~-2~-3-5-7~-7-7-5~------------------------|
B|-----0~-3~-0~-----7~--x~-0~-----0~-3~-----0~-----x~------------------------|
G|-----0~-2~-0~-----7~--4~-0~-----0~-2~-----0~-----4~------------------------|
D|-----5~-0~-2~-----7~--4~-2~-----5~-0~-----5~-----4~------------------------|
A|-----7~----3~-----9~--5~-3~-----7~--------7~-----5~------------------------|
E|---------------------------------------------------------------------------|

Prechorus:

Lay us down...

e|-3-----5-------7---------5-5-7---------5-----------------------------------|
B|-1-----3-------8---------3-3-5---------3-----------------------------------|
G|-0-----4-----------------4-4-4---------4-----------------------------------|
D|---------------------------------------------------------------------------|
A|---------------------------------------------------------------------------|
E|---0-0---0-0-0---0-0-0-0-------0-0-0-0---0-0-0-0---------------------------|

e|-3-----5-------7---------5-3-7---------5-----------------------------------|
B|-1-----3-------8---------3-1-5---------3-----------------------------------|
G|-0-----4-----------------4-0-4---------4-----------------------------------|
D|---------------------------------------------------------------------------|
A|---------------------------------------------------------------------------|
E|---0-0---0-0-0---0-0-0-0-------0-0-0-0---0-0-0-0---------------------------|

Guitar 2 (optional along with piano)

e|-16-18-20-18-18-20-18--16-18-20-18-16-23-----------------------------------|
B|---------------------------------------------------------------------------|
G|---------------------------------------------------------------------------|
D|---------------------------------------------------------------------------|
A|---------------------------------------------------------------------------|
E|---------------------------------------------------------------------------|

Chorus:

e|-23-22-18-23-22-18-23-22-18-20---------------------------------------------|
B|---------------------------------------------------------------------------|
G|---------------------------------------------------------------------------|
D|---------------------------------------------------------------------------|
A|---------------------------------------------------------------------------|
E|---------------------------------------------------------------------------|

or if your guitar doesn't have that many frets you can play

e|-11-10----11-10----11-10---------------------------------------------------|
B|-------11-------11-------11-13---------------------------------------------|
G|---------------------------------------------------------------------------|
D|---------------------------------------------------------------------------|
A|---------------------------------------------------------------------------|
E|---------------------------------------------------------------------------|

e|---------------------------------------------------------------------------|
B|---------------------------------------------------------------------------|
G|-0-2-4---------------------------------------------------------------------|
D|-----5-------4-------------------------------------------------------

Love Me To The End chords – Deine Lakaien

 [Verse 1]
 Dm C 
Waiting for the dawn
 Bb C 
Waiting for the night
 Dm C  
Waiting for the dawn
 Bb C    
Waiting for the night
 Dm C 
The day's too long
 Bb C  
The day's too bright
 Dm C 
The day's too long
 Bb C 
The day's too bright


[Refrain]
 Dm 
Love me,
 C Bb 
love me to the end


[Verse 2]
     Dm C     
this man pursues you
   Bb C  
a dagger in his hands
     Dm C   
this man pursues you
   Bb C 
a dagger in his hands
     Dm C   
Yet he will never
 Bb C 
get into our land
     Dm C  
Yet he will never
 Bb C 
get into our land


[Refrain]
 Dm 
Love me,
 C Bb 
love me to the end


[Verse3]
      Dm C 
Fall down by my side
 Bb C     
down in my arms
      Dm C 
fall down by my side
 Bb C 
down in my arms
      Dm C 
this night forever
    Bb C 
no morning will come
      Dm C   
this night forever
    Bb C 
no morning will come


[Refrain]
 Dm 
Love me,
 C Bb 
love me to the end
 Dm 
Love me,
 C Bb 
love me to the end

Love Me Until The End Of Time chords – Secret Lie

 Secret Lie - Love Me Until the End of Time
From the  Behind the Truth (2014)
Comment for any corrections and please rate


   Am Asus2 G F F7 G 
 Love     me until the end of time
   Am Am7 G F F7 G G7 
 Love     me until the end of time

 Dm F 
 As you grab my hand
         C G 
 Time slows down and stops
 Dm F 
 As I hold you tight
          C G 
 I wish we could be like this forever

       Dm F 
 'Cos all the time we have we'll share it
          C G 
 You and I chasing life
      Dm F 
 And all the time we spend living life
          C G 
 You and I, I'm just asking you to

   Am Asus2 G F F7 G 
 Love     me until the end of time
   Am Am7 G F F7 G    
 Love     me until the end of time

 Am G F G Am G F G Dm F 
 As you loose my hand
      C G 
 My world starts crumbling down
 Dm F 
 As I hold you tight
          C G 
 I know we will be like this forever

       Dm F 
 'Cos all the time we have we'll share it
          C G 
 You and I chasing life
       Dm F 
 'Cos all the time we spend in this life
          C G 
 You and I, All I need comes from you

   Am Asus2 G F F7 G 
 Love     me until the end of time
   Am Am7 G F F7 G    
 Love     me until the end of time
   Am Asus2 G F F7 G 
 Love     me until the end of time
   Am Am7 G F F7 G C  
 Love     me until the end of time

No Peace No End chords – Richard Thompson

 B Bsus4 
Where were you when the walls were crumbling 
 B Bsus4 
Where were you when the guns were rumbling 
 B G 
Where were you when the hounds of hell 
      C G D 
Took sons and lovers away
 B Bsus4 
Did you see me on the slippery slope
 B Bsus4 
Wrong end of a telescope
 B G 
Do you even pause for breath
            C G D 
As you sleepwalk through the day
 A Aaug 
Some day won't you
 A6 Aaug 
Stand in my shoes
            C# D 
And see the world I see
             F#m 
No hope no friend
 D F#m D F#m 
No hope no friend
    A E D F#m F# 
No peace, no end
 B Bsus4 
I'm ground between two stones
 B Bsus4 
Soon I'll be nothing but bones
 B G 
Who'll be my shining savior
 C G D 
Before I turn to dust?
 B Bsus4 
Are you the hand that kills me?
 B Bsus4 
Are you the hand that saves me?
 B G 
When they both sell you down the river
 C G D 
Which one can you trust?
 A Aaug 
Some day won't you
 A6 Aaug 
Stand in my shoes
    C# D 
And see the world I see
 D F#m D F#m 
No hope no friend
 D A E D F#m F# 
No peace, no end
 B Bsus4 
In the peace museum there's a mangy dove
 B Bsus4 
To remind us all of universal love
 B G 
You can rent her out for your corporate dinner
          C G D 
And feel good about yourself
 B Bsus4 
Geneva Convention they use as a pessary
 B Bsus4 
Olive branch is a fashion accessory
 B G 
In the big chess game there's just one winner
            C G D 
And it's always somebody else

 A Aaug 
Some day won't you
 A6 Aaug 
Stand in my shoes
    C# D 
And see the world I see
 D F#m D F#m 
No hope no friend
 D A E D            
No peace, no end
 D F#m D F#m 
No hope no friend
    A E D            
No peace, no end

 F#m B

Life Is Strange – End Credits Max And Chloe Tabs – Misc Computer Games

 -------------------------------------------------------------------------------
                        Jonathan Morali - End Credits (Life Is Strange)
-------------------------------------------------------------------------------
: Marta Mayer

After releasing my set of covers on YouTube (https://www.youtube.com/watch?v=waY8jaL-3Es), many 
people asked for tutorials or tabs for particular songs. So here you are, here is the wonderful 
music that can be heard in the end of the game! This tab is obviously not for the melodic line, 
but for the accompanying guitar (in my vid it's the upper screen). I warn you, it's not 
the easiest song. I tried to tab it in the simpliest way possible, but please - do read 
carefully, before giving up :)

Tip: The best fingers positions for the first two chords are like this:
pinkie finger: A string, 5th fret 
ring finger: D string, 4th fret
index finger: G string, 2nd fret
middle finger: B string, 3rd fret

Tuning: Standard

Position 1 (0:00 - 0:20)

e|------------------------------------------------------------------------------------------------------|
B|----------------3----------------------3-------------------------3-------------------------3----------|
G|-------------------2------2-----2----------2-----------2-----2-------2------------2-----2-------2-----|
D|------4------4---------------------4-----------4--------------------------4-------------------------4-|
A|--5------5------------5-------5--------------------5------5--------------------5------5---------------|
E|------------------------------------------------------------------------------------------------------|

Now, here comes the first change.
Position 2 (0:20 - 0:24)
Tip: The position is very similar to the first one. All you have to do, is to move your index finger to 
the E string, 3rd fret.

e|----------------------------------------------------------------------------|
B|---------------3-----------------------3------------------------------------|
G|-----0-------------0----------0--------------0------------------------------|
D|-----------4-----------4------------4---------------4-----------------------|
A|----------------------------------------------------------------------------|
E|--3-----3------------------3----3-------------------------------------------|

And then go back to position 1. 

Here comes the 3rd position (basically the Em chord)(in the song it's on 1:01)

e|------------------0---------------------------------------------------------|
B|----------------------0-----------------------------------------------------|
G|----------0---------------0-------------------------------------------------|
D|------2-------2---------------2---------------------------------------------|
A|----------------------------------------------------------------------------|
E|---0------------------------------------------------------------------------|

And right after is the 4th position (it's Bm barre chord) (1:03 approximately)

e|------------------------2---------------------------------------------------|
B|-----------------------------2----------------------------------------------|
G|---------3------------------------3-----------------------------------------|
D|-------------------4-------------------4------------------------------------|
A|----------------------------------------------------------------------------|
E|----2---------2-------------------------------------------------------------|

AND THEN SWITCH TO POSITION 1 AGAIN.


Now, I don't play this part in my video since I cut it out accidentally, but in case you want to continue 
with the song (and obviously you do), the chords are basically the same, until 2:13.

5th position (G chord, but the barre version) (it comes roughly on 2:14)

e|---------------------------------------------------------------------------------|
B|-----------------------3-------------------------------------------3-------------|
G|----------------------------4--------------

End Of A Lifetime Tabs – Unbroken

 PH = pinched harmonic
BU = Bend up

e|------------------|
B|------------------|
G|------------------|
D|-0--1--6--3--6--3-| x3
A|-0--1--6--3--6--3-|
D|-0--1--6--3--6--3-|

e|---------|
B|---------|
G|---------|
D|-0--1--6-|
A|-0--1--6-|
D|-0--1--6-|

    e|---------------------------|
    B|---------------------------|
GTR G|-7/8\7---------------------|
 1  D|--------0h1p0--0----3----6-| x8
    A|-5/6\5--0h1p0--0-00-3-00-6-|
    D|--------0h1p0--0-00-3-00-6-|
                       PM   PM

    e|-----------------------------|
    B|-----------------------------|
GTR G|-7/8\7--------------10----13-|
 2  D|--------0h1p0--0-------------| x8
    A|-5/6\5--0h1p0--0-00-8--00-11-|
    D|--------0h1p0--0-00----00----|
                       PM    PM

e|----------------------------------3h4p3-|
B|----------------------------------------|
G|--------------------------3h4p3---------|
D|--------------------1--1--------6-------|
A|-0-0--0-0--0-0--0-0-1--1----------------|
E|-0-0--0-0--0-0--0-0-1--1----------------|
   P M  P M  P M  P M 

e|---------------------------------|
B|---------------------------------|
G|---------------------------------|
D|--------------------6--6---------|
A|-0-0--0-0--0-0--0-0-6--6--06--06-|
D|-0-0--0-0--0-0--0-0-6--6--06--06-|
   P M  P M  P M  P M

e|---------------------------------3h4p3-|
B|---------------------------------------|
G|-------------------------3h4p3---------|
D|-0-----------------1--1--------6-------|
A|-0---0-0--0-0--0-0-1--1----------------|
D|-0---0-0--0-0--0-0-1--1----------------|
       P M  P M  P M 

e|---------------------------------|
B|---------------------------------|
G|---------------------------------|
D|--------------------6--6---------|
A|-0-0--0-0--0-0--0-0-6--6--06--06-|
D|-0-0--0-0--0-0--0-0-6--6--06--06-|
   P M  P M  P M  P M

    e|---------------------------|
    B|---------------------------|
GTR G|-7/8\7---------------------|
 1  D|--------0h1p0--0----3----6-| x4
    A|-5/6\5--0h1p0--0-00-3-00-6-|
    D|--------0h1p0--0-00-3-00-6-|
                       PM   PM

    e|-----------------------------|
    B|-----------------------------|
GTR G|-7/8\7--------------10----13-|
 2  D|--------0h1p0--0-------------| x4
    A|-5/6\5--0h1p0--0-00-8--00-11-|
    D|--------0h1p0--0-00----00----|
                       PM    PM

e|---------------------------|
B|---------------------------|
G|-7/8\7--7/8\7--------------|
D|---------------0----3----6-| x4
A|-5/6\5--5/6\5--0-00-3-00-6-|
D|---------------0-00-3-00-6-|
                       PM   PM

e|----------------------------------3h4p3-|
B|----------------------------------------|
G|--------------------------3h4p3---------|
D|--------------------1--1--------6-------|
A|-0-0--0-0--0-0--0-0-1--1----------------|
E|-0-0--0-0--0-0--0-0-1--1----------------|
   P M  P M  P M  P M 

e|---------------------------------|
B|---------------------------------|
G|---------------------------------|
D|--------------------6--6---------|
A|-0-0--0-0--0-0--0-0-6--6--06--06-|
D|-0-0--0-0--0-0--0-0-6--6--06--06-|
   P M  P M  P M  P M

e|------------------------------------|
B|------------------------------------|
G|---------------------------3PH--3PH-|
D|--------------------6--6------------|
A|-0-0--0-0--0-0--0-0-6--6--0----0----|
D|-0-0--0-0--0-0--0-0-6--6--0----0----|
   P M  P M  P M  P M

e|---------------------------------3h4p3-|
B|---------------------------------------|
G|-------------------------3h4p3---------|
D|-0-----------------1--1--------6-------|
A|-0---0-0--0-0--0-0-1--1----------------|
D|-0---0-0--0-0--0-0-1--1----------------|
       P M  P M  P M 

e|---------------------------------|
B|---------------------------------|
G|---------------------------------|
D|--------------------6--6---------|
A|-0-0--0-0--0-0--0-0-6--6--06--06-|
D|-0-0--0-0--0-0--0-0-6--6--06--06-|
   P M  P M  P M  P M

e|---------------------------------|
B|---------------------------------|
G|---------------------------------|
D|-0-------feedback---

End Of The World chords – Aphrodites Child

 -----------------------------------------------------------------------------
                                          Artist - Aphrodites Child
                                         ***************************
                                          Song - End Of The World  
                                         *************************
                                      Album - End Of The World (1968)
                                     *********************************
                                            - Ayreon77
                                          **********************
-----------------------------------------------------------------------------
Tuning = Standard


I would say do most of the chords barred except E


----------------------------
VERSE 1
********
 C#m F#m 
You should come with me to the end of the world
     B E Ab 
without telling your parents and your friends
 C#m F#m 
You know that you only need say a word
    B E 
So we might play with thy end of the world
 Ab A 
But I know 
 B A F#m Ab 
that I'll go... away by myself
   F#m Ab C#m 
I feel you don't want to come


----------------------------
VERSE 2
********
 C#m F#m 
You should come with me to the end of the world
    B E Ab 
We could lie all day on the quiet sands
 C#m F#m 
I would introduce you to my friend the bird
     B E 
who sings and flies along the fairy strand
 Ab A 
But I know 
 B A F#m Ab 
that I'll go... away by myself
   F#m Ab C#m 
I feel you don't want to come  he---y, ha---a


----------------------------
BREAK
*******
 C#m B A  X3
 Bbm 


----------------------------
VERSE 3
********
 C#m F#m 
If you come with me to the end of the world
      B E Ab 
I'll give you anything that lives on earth
 C#m F#m 
You know that you only need say a word
    B E 
So we might live at the end of the world
 Ab A 
What I know
 B A F#m Ab 
that I'll go... away by myself
   F#m Ab C#m 
I feel you don't want to come  he---y, ye---a


----------------------------
BREAK
*******
 C#m B A  X3
 Bbm 



ENJOY............

End Of Me chords – A Day To Remember V3

 I wanted the ability to play this song live in the recorded key without having to drop the entire guitar one
full step. Drop D tuning allows the intro to be played along with the chords. Enjoy and let me know what you
think!! 

TUNING: Drop D

CAPO: 2nd fret

CHORDS (relative to capo):
 Am   - x02210
 Em   - 222000
 D    - 000232
 G    - x55433

E|--------------------------------------------------------------------| 
B|-1---------1--------------------------------------------------------| 
G|---2---0-----2----0-----0---0---------------------------------------| 
D|--------------------2---------2----4-----5---4-----4-----5---4------| 
A|-0---0---0-----0---------------------5---------5-----5---------5----| 
D|------------------2---2---2-----2--0---0---0-----0-0---0---0-----0--|

 Am  –  Em  –  D 
I took some time away for understanding of what brought us here today
Oh, you'll be the end of me
I'm never happy like we were happy, I'm never sad like we were sad
Oh, you'll be the end of me

 Am  –  Em  –  D 
You know me all too well, and I can't suppress the memories
You're gone and I can tell that I've lost more than you'll ever see
Don't say that it's not fair that you're not the person you wanna be
'Cause oh, you'll be the end of me

 Am  –  Em  –  D 
I know I wasn't perfect, but I kept trying till I forgot why I stayed
Oh, you'll be the end of me
Yeah we lost all meaning, we lost the magic, so good luck to you on your way
Oh, you'll be the end of me

 Am  –  Em  –  D 
You know me all too well, and I can't suppress the memories
You're gone and I can tell that I've lost more than you'll ever see
Don't say that it's not fair that you're not the person you wanna be
'Cause oh, you'll be the end of me

 Am  –  Em  –  G  –  D  (2x)

 Am  –  Em  –  G  –  D  
I get it, no, I get it- gave more than I took back (took back, oh well)
I get it, no, I get it- can't help those who don't wanna be helped

 Am  –  Em  –  D 
You know me all too well, and I can't suppress the memories
You're gone and I can tell that I've lost more than you'll ever see
Don't say that it's not fair that you're not the person you wanna be
'Cause oh, you'll be the end of me (you'll be the end of me)


 Am  –  Em  –  G  –  D  (2x)

End

Love At The End Of The World chords – John Mark Mcmillan

 Am     -      C 
Out of the gaslight
          Am C 
Off the roads we've traveled on
                 Am      -  C 
Down by the wayside
                 Am C 
Against the sheen of a Babylon
                  Am  -     C 
I've seen an empire
               Am C 
Taste the tempest of a gathering strong 
      G - F Am 
But I found love at the end of the world
(really hold out the “I” in these stanzas; you have to fit two chords over it)
                 Am  -  C 
My rabbit's running
         Am C 
On the street hot heels of Rome
              Am C 
My hour's coming to reconcile with the dawn

 Am C 
I I'm on the brink
 Am C 
I I'm on the brink
 Am C 
I I'm on the brink
      G - F Am 
But I found love at the end of the world

 F 
Tell the reaper
         C G 
Tell the repo man
 F C G 
I've got nothing that belongs to him 
 F C G 
Ruin pushes rubble in the city of sin 
       G - F Am 
But I found love at the end of the world


                Am         -  C 
Out of the good night
         Am C 
I was born into your arms
                      Am     -  C 
Like you're my country
                       Am C 
Like you're the hills where I belong
                Am C 
Out of that good night (I'm on the brink)
         Am C 
I was born into your arms (I'm on the brink)
                 Am C 
You are my country (I'm on the brink)
                         G F Am 
Like the hills where I found love at the end of the world

 F 
Tell the reaper
         C G 
Tell the repo man
 F C G 
I've got nothing that belongs to him 
 F C G 
Ruin pushes rubble in the city of sin 
       G - F Am 
But I found love at the end of the world

World Without End chords – Gregorian Chant

 /intro/
 A C G A  (x2)

/verse 1/
 A E 
Jubilato deo
 A E 
Omnis terra
 F C C E 
Alleluja Alleluja

/verse 2/
 A E 
Psalmum dicite
 A E 
Nomini ejus
 F C C E 
Alleluja Alleluja

/ref./
      A C 
In a time, in a place
         G A 
Full of joy and full of grace
                   C 
Every town, every land 
      G A 
Is a world without end
                C 
Enemies become mates
         G A 
And the whole world celebrates
        C G 
Now ,,united we stand"
      A G A 
In a world without end


/pre-verse/
 A C G A  (x2)

/verse 3/
 A E 
Date gloriam
 A E 
Laudi ejus
 F C C E 
Alleluja Alleluja

/verse 4/
 A E 
Jubilate deo
 A E 
Gloria patri
 F C C E 
Alleluja Alleluja

/ref./
      A C 
In a time, in a place
         G A 
Full of joy and full of grace
                   C 
Every town, every land 
      G A 
Is a world without end
                C 
Enemies become mates
         G A 
And the whole world celebrates
        C G 
Now ,,united we stand"
      A G A 
In a world without end

/ending 1/
 A C G A  (x3)

 A C G 
Now ,,united we stand"
 A G 
Now ,,united we stand"
 A C G 
Now ,,united we stand"
      A G A 
In a world without end


/ending2/

 A C G A 

Version for GuitarPro5 you find here:
http://www.ultimate-guitar.com/home/tab_detail.php?tabid=1460876

Hello The End Tabs by Alex Lloyd

 -------------------------------------------------------------------------------
                             Hello The End - Alex Lloyd
-------------------------------------------------------------------------------
: Sean Sullivan
 themindsnexus@hotmail.com

Tuning: Standard EADGBe


Intro
E|-------------------------------------------------------------|
B|--3----3--------3----3--------3----3--------2-2--2-0-2-------|
G|--2--2---2---2--2--2---2---2--2--2---2---2--2-2--2-2-2-------|
D|--0--------0----x-------------x-------------2-2--2-2-2-------|
A|----------------3--------3----2--------2----0-0--0-0-0-------|
E|-------------------------------------------------------------|

Dm   Am   C   G


Dm          Am 
This is the end, my friend
    C                   G  
The end, my friend, the end
Dm                 Am
I hope to see you again, my friend
 C                 G
Again, my friend, again

    Dm        Am             
And I 
               C        G
didn't want to hold you back
    Dm        Am
And I 
               C      
didn't want to see you off now
G
Down the wrong track

 A            G   
This time, it makes so sense at all
 A            G                   
I'm standing still while others fall
 C               A 
Keeps shrinking every second

Dm          Am                
Count 4 and we'll begin
C           G
We'll begin again
Dm           An 
This time, release, my friend
 C                      G
Release, my friend, the end

    Dm        Am             
And I 
               C        G
didn't want to hold you back
    Dm        Am
And I 
               C      
didn't want to see you off now
G
Down the wrong track

 A            G   
This time, it makes so sense at all
 A            G                   
I'm standing still while others fall
 C               A 
Keeps shrinking every second

SOLO
E|-------------------------------------------------------------|
B|-------------------------------------------------------------|
G|-------------------------------------------------------------|
D|-12hbr-12-10-9----10-9---------------------------------------|
A|---------------12------12-10---------7-8-7-------------------|
E|-----------------------------10-8-10-------10----------------|

E|-------------------------------------------------------------|
B|-------------------------------------------------------------|
G|-------------------------------------------------------------|
D|-12hbr-12--15-14-10---10-9-----------------------------------|
A|---------------------------12-10---------8-10/12-12-12\------|
E|---------------------------------10-8-10---------------------|

 A               G
Elusive personality
 A                          G
I think you know as much as me
C                      A 
Keeps shrinking every second


Outro is the same as the intro with "The end" and "Hello" repeated over the top.

End Of The World chords – Juliet Simms

 Intro:  D D4 D D9 G Bm G D A 

( D D4 D D9 G Bm G D A )
We flew too close to the sun
so close I thought it was heaven
If hell is a life without love
am I being punished for what I’ve done

 G Bm 
Sky’s on fire,
 G D A 
All the world disappears,
 G Bm                   
No signs of life 
 A 
Without you here

 D A 
Tears will fall
 G                 
Ocean’s will rise,
 A 
The earth will stop turning

 D A G 
Since you left every breath
 A 
Feels like it’s burning
 Bm A 
I know love will go on
      D A 
I will survive, but for tonight
 G 
I’d swear on my life
 A 
This is the end of the world

( D D4 D D9 G Bm G D A )
Slept on your side of the bed
replayed the things that I should have said
Wish I had summoned the strength
to leave alone what I couldn’t change

 G Bm 
Sky’s on fire,
 G D A 
All the world disappears,
 G Bm                   
No signs of life 
 A 
Without you here

 D A 
Tears will fall
 G                 
Ocean’s will rise,
 A 
The earth will stop turning

 D A G 
Since you left every breath
 A 
Feels like it’s burning
 Bm A 
I know love will go on
      D A 
I will survive, but for tonight
 G 
I’d swear on my life
 A 
This is the end of the world

 G Bm 
Sky’s on fire,
 G D A 
All the world disappears,
 G Bm                   
No signs of life 
 A 
Without you here

 D A 
Tears will fall
 G                 
Ocean’s will rise,
 A 
The earth will stop turning

 D A G 
Since you left every breath
 A 
Feels like it’s burning
 Bm A 
I know love will go on
      D A 
I will survive, but for tonight
 G 
I’d swear on my life
 A 
This is the end of the world

End Of The World Tabs by Mcfly V3

  McFly
Song: End Of The World
 Above The Noise
 black_guitar52


Verse 1 And PRE-Chorus:

I thought I saw something moving...
E|-------------------------------------|
B|-------------------------------------|
G|-------------------------------------|
D|-------------------------------------|
A|------3-3-3---------5----------------|
E|--------------3---5------------------|


I really think this could be the end of the world...
E|---3--3------3--3----3------------|
B|---3--3------3--3----3------------|
G|---3--3------3--3----3------------|
D|---5--5------5--5----5------------|
A|---5--5------5--5----5------------|
E|---3--3------3--3----3------------|

Chorus:

It's the end...The skys fallin' down...
E|----8--8--8---8--x---8--8--8---8--x------------|
B|----9--9--8---9--x---9--9--8---9--x------------|
G|---10-10--8--10--x--10-10--8--10--x------------|
D|---10-10--8--10--x--10-10--8--10--x------------|
A|-----------------------------------------------|
E|-----------------------------------------------|


The end...So gays grap the girls...
E|------4-4---4--4--x--4-4---4--4--x---------|
B|------5-5---4--5--x--5-5---4--5--x---------|
G|------6-6---4--6--x--6-6---4--6--x---------|
D|------6-6---4--6--x--6-6---4--6--x---------|
A|-------------------------------------------|
E|-------------------------------------------|
 
The end...
E|-----4-4---4--4--x---------------|
B|-----4-4---4--4--x---------------|
G|-----5-5---4--5--x---------------|
D|-----6-6---4--6--x---------------|
A|-----6-6---4--6--x---------------|
E|---------------------------------|


And spread the world around.
E|-------------------------------------|
B|-------------------------------------|
G|-------------------------------------|
D|---5--3------3-----------------------|
A|----------6------6--3~---------------|
E|-------------------------------------|


Verse 2 and PRE-Chorus:

I sold my soul to the devil...
E|-------------------------------------|
B|-------------------------------------|
G|-------------------------------------|
D|-------------------------------------|
A|------3-3-3----------5---------------|
E|--------------3---5------------------|


I really think this could be the end of the world...
E|---3--3------3--3----3--------------------|
B|---3--3------3--3----3--------------------|
G|---3--3------3--3----3--------------------|
D|---5--5------5--5----5--------------------|
A|---5--5------5--5----5--------------------|
E|---3--3------3--3----3--------------------|

Chorus:

It's the end...The skys fallin' down...
E|----8--8--8---8--x---8--8--8---8--x------------|
B|----9--9--8---9--x---9--9--8---9--x------------|
G|---10-10--8--10--x--10-10--8--10--x------------|
D|---10-10--8--10--x--10-10--8--10--x------------|
A|-----------------------------------------------|
E|-----------------------------------------------|


The end...So gays grap the girls...
E|------4-4---4--4--x--4-4---4--4--x---------|
B|------5-5---4--5--x--5-5---4--5--x---------|
G|------6-6---4--6--x--6-6---4--6--x---------|
D|------6-6---4--6--x--6-6---4--6--x---------|
A|-------------------------------------------|
E|-------------------------------------------|
 
The end...
E|-----4-4---4--4--x---------------|
B|-----4-4---4--4--x---------------|
G|-----5-5---4--5--x---------------|
D|-----6-6---4--6--x---------------|
A|-----6-6---4--6--x---------------|
E|---------------------------------|


And spread the world around.
E|-------------------------------------|
B|-------------------------------------|
G|-------------------------------------|
D|---5--3------3-----------------------|
A|----------6------6--3~---------------|
E|-------------------------------------|

Solo part:



Strum this many times after the "And spread the world around" ends:

E|-----3--------------------|
B|-----3--------------------|
G|-----3--------------------|
D|----

Love Without End chords – George Strait V2

 George Strait - Love Without End, Amen
Capo 2nd

Intro
  C 
----------------------|x2
-------1----------1---|
----------------------|
---0h2---2----0h2---0-|
-3----------3---------|
----------------------|

Verse 1                                                      
    C F C    
I got sent home from school one day with a shiner on my eye  
                                                      G *  (fill)    
Fightin' was against the rules and it didn't matter why       
       F G C F        
When dad got home I told that story just like I'd rehearsed
        C G C 
Then stood there on those trembling knees and waited for the worst


( G *  fill)
-----------------------|
---0-----0----0--------|
---0-----0----0--------|
---0-0h2--2h3---3-2-0--|
-----------------------|
-3---------------------|


Chorus
          C F C    
He said let me tell you a secret about a father's love
                                                G   
A secret that my daddy said was just between us
            F G C F        
He said, "Daddies don't just love their children every now and then
         C G C G C 
It's a love without end, Amen; it's a love without end, Amen"


Verse 2
      C F C    
When I became a father in the spring of '81
                                                                 G     
There was no doubt that stubborn boy was just like my father's son
       F G C F        
And when I thought my patience had been tested to the end
    C G C 
I took my daddy's secret and I passed it on to him


Chorus
         C F C    
I said let me tell you a secret about a father's love
                                                G   
A secret that my daddy said was just between us
           F G C F        
I said, "Daddies don't just love their children every now and then
         C G C G C A 
It's a love without end, Amen; it's a love without end, Amen"


Verse 3
       D G D    
Last night I dreamed I died and stood outside those pearly gates
                                                 A      
When suddenly I realized there must be some mistake
      G A D G        
If they know half the things I've done they'll never let me in
         D A D 
Then a somewhere from the other side and I heard these words again


Chorus
            D G D    
They said let me tell you a secret about a father's love
                                                A  
A secret that my daddy said was just between us
           G A D G       
You see, Daddies don't just love their children every now and then
         D A D A D 
It's a love without end, Amen; it's a love without end, Amen

End Of Me chords – A Day To Remember V2

 Adjusted the Chords from another Version to Standard Tuning

[Intro]
 H F# E E  [2x]

[Verse]
 H F# 
 I took some time away
           E 
 For understanding
          E H 
 Of what brought us here today
     F# E E 
 Oh-oh, you'll be the end of me
 H F# E 
 I'm never happy like we were happy
            E H 
 I'm never sad like we were sad
     F# E          
 Oh-oh, you'll be the end of me

[Chorus]
 E H 
 You know me all too well
        F# E 
 And I can't suppress the memories
 E H 
 You're gone and I can tell
            F# E 
 That I've lost more than you'll ever see
 E H 
 Don't say that it's not fair
              F# E E 
 That you're not the person you wanna be
 H F# E E 
 Oh-oh, you'll be the end of me

[Interlude]
 H F# E E  [2x]

[Verse]
 H F# 
 I know I wasn't perfect,
             E  
 But I kept trying 
             E H 
 ‘Till I forgot why I stayed
     F# E E 
 Oh-oh, you'll be the end of me 
 H F# 
 Yeah, we lost all meaning
              E 
 We lost the magic
          E                   
 So good luck to you on your way
 H F# E 
 Oh-oh, you'll be the end of me

[Chorus]
 E H 
 You know me all too well
        F# E 
 And I can't suppress the memories
 E H 
 You're gone and I can tell
            F# E 
 That I've lost more than you'll ever see
 E H 
 Don't say that it's not fair
              F# E E 
 That you're not the person you wanna be
 H F# E 
 Oh-oh, you'll be the end of me
 E 
 You'll be the end of me

[Interlude]
 H F# A E H F# A E H F# 
 I get it now, I get it
       A E 
 Gave more than I took back, oh well (so back away!)
 H F# 
 I get it now, I get it
        A E 
 Can't help those who don't wanna be helped

[Chorus]
                      H 
 You know me all too well 
        F# E 
 And I can't suppress the memories
 E H 
 You're gone and I can tell
            F# E 
 That I've lost more than you'll ever see
 E H 
 Don't say that it's not fair
              F# E E 
 That you're not the person you wanna be
 H F# E 
 Oh-oh, you'll be the end of me
 E 
 You'll be the end of me

[Outro]
 H F# A E H F# A E

A Means To An End Tabs by Joy Division

 Hello folks! Since there wasn't a tab available, I tried to create one for you!

It's my first tab so I hope you like it. :)


Song: A Means To An End.
Artist: Joy Division.
 Closer (1980).
Guitarist: Bernard Sumner.

Guitar intro (2x):

e-----------------------------------------------------------------------------|
B-----------------------------------------------------------------------------|
G-----------------7-------------7-------------7-------------------------------|
D--5--7--5--7--5----5--7--5--7----5--7--5--7----------------------------------|
A--------------------------------------------------0------2--2--2--2--2--2--2-|
E----------------------------------------------------0----0--0--0--0--0--0--0-|

A--2--2--2--2--2--2--2-|
E--0--0--0--0--0--0--0-|

Verse ( A legacy so far improved):

e-----------------------------------------------------------------------------|
B-----------------------------------------------------------------------------|
G-----------------------------------------------------------------------------|
D-----------------------------------------------------------------------------|
A--5--5--5--5--5--5--5--5--4--4--4--4--3--3--3--3--2--2--2--2--2--2--2--2--2--|
E--3--3--3--3--3--3--3--3--2--2--2--2--1--1--1--1--0--0--0--0--0--0--0--0--0--|

A--2--2--2--2--2--2--2-|
E--0--0--0--0--0--0--0-|

e-----------------------------------------------------------------------------|
B-----------------------------------------------------------------------------|
G-----------------7-------------7-------------7-------------------------------|
D--5--7--5--7--5----5--7--5--7----5--7--5--7----------------------------------|
A--------------------------------------------------0------2--2--2--2--2--2--2-|
E----------------------------------------------------0----0--0--0--0--0--0--0-|

A--2--2--2--2--2--2--2-|
E--0--0--0--0--0--0--0-|

Chorus (I always looked to you):

e-----------------------------------------------------------------------------|
B-----------------------------------------------------------------------------|
G-----------------7-------------7-------------7-------------------------------|
D--5--7--5--7--5----5--7--5--7----5--7--5--7----------------------------------|
A--------------------------------------------------0------2--2--2--2--2--2--2-|
E----------------------------------------------------0----0--0--0--0--0--0--0-|

A--2--2--2--2--2--2--2-|
E--0--0--0--0--0--0--0-|


e-----------------------------------------------------------------------------|
B-----------------------------------------------------------------------------|
G-----------------------------------------------------------------------------|
D-----------------------------------------------------------------------------|
A--5--5--5--5--5--5--5--5--4--4--4--4--3--3--3--3--2--2--2--2--2--2--2--2--2--|
E--3--3--3--3--3--3--3--3--2--2--2--2--1--1--1--1--0--0--0--0--0--0--0--0--0--|

A--2--2--2--2--2--2--2-|
E--0--0--0--0--0--0--0-|

e-----------------------------------------------------------------------------|
B-----------------------------------------------------------------------------|
G-----------------7-------------7-------------7-------------------------------|
D--5--7--5--7--5----5--7--5--7----5--7--5--7----------------------------------|
A--------------------------------------------------0------2--2--2--2--2--2--2-|
E----------------------------------------------------0----0--0--0--0--0--0--0-|

A--2--2--2--2--2--2--2-|
E--0--0--0--0--0--0--0-|

Bridge (I put my trust in you):

e-----------------------------------------------------------------------------|
B-----------------------------------------------------------------------------|
G-----------------------------------------------------------------------------|
D-----------------------14--14--14--14--14--14--14--14--14--12--12--12--12----|
A--2--2--2--2--2--2--2--14--14--14--14--14--14--1

Until The End chords – The Coffinshakers

 Intro:  G Em C D G D G Em    
There is nothing left to do
               C D 
It seems like everything is done
 G Em 
Nothing more to achieve
      C D G D 
I no longer know in what to beleive

The path of my life
Once a road of many choices
Now a blind alley in the dark
And to guide my way I don't even have a spark

 Em C D 
The death of what is dead, not a prayer will be said
         G C D 
Well, I guess it wouldn't help me anyway
             Em C D 
When on the path of death I tread not a tear will be shed
         Em C G D      
There's no-one who will miss me that day

The call of the wild
Has for many years ago
Forever lost it's charm
Now I just long for the Reaper's icy arms

I don't know when my time will come
But there is no-one to tell goodbye
Not a lover nor a friend
So I guess I'll move it on until the end

The death of what is dead, not a prayer will be said
Well, I guess it wouldn't help me anyway
The only one decease that is making my blood freeze
Is the boredom that has lead me astray

              C D G 
And it's too late for me to stay
 C D G 
Nothing can help me that day
           Em C D 
When even death is fading away

Here Comes The End Again chords – Eyeshine

 Eyeshine - Here Comes The End Again

Standard Tuning

    A B E F# 
e|-0---2---0---2-|
B|-2---4---0---2-|
G|-2---4---2---3-|
D|-2---4---2---4-|
A|-0---2---1---4-|
E|-x---x---0---2-|


Intro:
 F# A E B F# A     
 Here comes the end again
          B  
 Let's begin again 
                           F# A 
 Just like we never fell apart of me
            B 
 Is losing you


 F# 
 I doubt we ever said it
 E 
 Small hands across the planet
 F# 
 My prayer caused so much static
 E 
 My bad, it's your call


 F# 
 All the rain's a preview
 E 
 All the rain's a preview
 F# 
 All the pain we read through
 E 
 All the pain


 F# A     
 Here comes the end again
          B  
 Let's begin again 
                           F# A 
 Just like we never fell apart of me
            B 
 Is losing you

Interval:
 F# A E B F# 
 You and I can recommend it
 E 
 My few are broken handed
 F# 
 So much for automatic
 E 
 I thought you understanded


 F# 
 All the rain's preview
 E 
 All the rain's preview
 F# 
 All the pain we read through
 E 
 All the pain


 F# A     
 Here comes the end again
          B  
 Let's begin again 
                           F# A 
 Just like we never fell apart of me
            B 
 Is losing you


       F# A E B    
 They feel like stickers in my head
        F# A E B 
 Everything, everything is turning red
          F# A E B  
 This is more than I can handle
          F# A E B 
 This is more, this is more, this is so much more


Interval:
 F# A E B F# A     
 Here comes the end again
          B  
 Let's begin again 
                           F# A 
 Just like we never fell apart of me
            B 
 Is losing you


Interval:
 F# A E B F# A E B    
 C'mon, c'mon, we're losing time
    F# A E B 
 C'mon, c'mon, we're out of line


Enjoy!
-Sace97