Tag: end

In The End Tabs by Us

 VERSE 1
(x2)
"One thing, I don't know why...."
e|-----------------------------------------------------------------|
B|------8-------8-------8-------8-------7-------7-------7-------7--|
G|----0-------0-------0-------0-------0-------0-------0-------0----|
D|-----------------------------------------------------------------|
A|-7-------7-------7-------7-------5-------5-------5-------5-------|
E|-----------------------------------------------------------------|
                                                                                 
e|-----------------------------------------------------------------|
B|------5-------5-------5-------5-------7-------7-------7-------7--|
G|----0-------0-------0-------0-------0-------0-------0-------0----|
D|-----------------------------------------------------------------|
A|-3-------3-------3-------3-------5-------5-------6-------6-------|
E|-----------------------------------------------------------------|

(3rd time)
"Didn't look out below"
e|------------------------------------------------------------------|
B|------8-------8-------8-------8-----------------------------------|
G|----0-------0-------0-------0---------8-------8-------8-------8---|
D|------------------------------------9-------9-------9-------9-----|
A|-7-------7-------7-------7----------------------------------------|
E|---------------------------------7-------7-------7-------7--------|

"Trying ot hold on..."
e|------------------------------------------------------------------|
B|------------------------------------------------------------------|
G|------9-------9--------9--------9--------11-------11--------------|
D|---10------10-------10-------10-------12-------12-----------------|
A|------------------------------------------------------------------|
E|-8-------8--------8--------8-------10-------10--------10~~--------|

"I kept everything inside..."
e|-----------------------------------------------------------------|
B|------8-------8-------8-------8-------7--------------------------|
G|----0-------0-------0-------0-------0----------------------------|
D|-----------------------------------------------------------------|
A|-7-------7-------7-------7-------5--------5\---------------------|
E|-----------------------------------------------------------------|

"What it meant to me..."
e|-----------------------------------------------------------------|
B|------5-------5-------5-------5-------7-------7------------------|
G|----0-------0-------0-------0-------0-------0--------------------|
D|-----------------------------------------------------------------|
A|-3-------3-------3-------3-------5-------5-------5~~-------------|
E|-----------------------------------------------------------------|


CHORUS
(x2)
"I tried so hard..."
e|-------0--------0--------0--------0--------0---------0---------0---------0-|
B|-----0--------0--------0--------3--------3---------3---------3---------3---|
G|---0--------0--------0--------0--------0---------0---------0---------0-----|
D|---------------------------------------------------------------------------|
A|---------------------------------------------------------------------------|
E|-0--------0--------0--------2--------3---------3---------3---------3-------|


e|-------2--------2--------2--------2-|------0---------0---------0---------0-|
B|-----3--------3--------3--------3---|----3---------3---------3---------3---|
G|---2--------2--------2--------2-----|--0---------0---------0---------0-----|
D|-0--------0--------0--------0-------|--------------------------------------|
A|------------------------------------|3---------3---------3---------3-------|
E|------------------------------------|--------------------------------------|

        (2nd time ending)
        e|-------0-|
        B|-----3---|
        G|---0-----|     (7x)Let last note ring
        D|---------|
        A|-3-------|
        E|---------|


Verse

Mine End This Way intro Tabs by Five Finger Death Punch

 Medeivalman98

Standard tuning
Bass note for chord changes is in B

Chords
    Bm   Bsus2sus4     B7sus2    B5    G    A
E|---2-------0----------------------------------------------------|
B|---3-------2-----------2--------2----3----2---------------------|
G|---4-------4-----------2--------4----4----2---------------------|
D|---4-------4-----------4--------4----5----2---------------------|
A|---2-------2-----------2--------2----5----0---------------------|
E|-------------------------------------3--------------------------|
     Bm                Bsus2sus4         Bm
E|-----------2-----------------0----------------------------------|
B|-------3-------3---------2-------2-------------3----------------|
G|---------4---4---4---------4---4---4-------4-------4------------|
D|-----4-----------------4-----------------4---4---4---4----------|
A|---2-----------------2-----------------2------------------------|
E|----------------------------------------------------------------|
     B7sus             G                 A
E|----------------------------------------------------------------|
B|-----------2-----------------3-----------------2----------------|
G|-------2-------2---------4-------4---------2--------2-----------|
D|-----4---4---4---4---------5---5---5-----2---2---2----2---------|
A|---2-------------------5---------------0------------------------|
E|---------------------3------------------------------------------|
     B5
E|----------------------------------------------------------------|
B|-------2-2----2-----0-------------------------------------------|
G|----------------4---4-------------------------------------------|
D|-----4------------4---------------------------------------------|
A|---2------------------------------------------------------------|
E|----------------------------------------------------------------|

Is The Black At The End Good chords – Flaming Lips

 Chords Used*
 Em Dm C F G 

*Feel free to use either barred or open chords at your discretion

Part 1:

 Em Dm Em  
The sun is right behind us
                        F   
Though it's cold and dark ahead
             C G   
That's just me being optimistic
          C 
I know, I know


(Suffering defeat us
My spirit tries and tries
But it's hard
I know, I know, I know

Pain is this burdening power
It punishes the soul
It's stars all around us
I know, I know

Everything changes
Everything does, I know
I know, I know, I know, I know)*

*bracketed uses same chord progression as first stanza



Part 2:

 C 
So you see
 Dm 
How many live without it
                  F G           
Cause everywhere the love is
                   C 
That's where I'll be...

The End Tabs by Pearl Jam V3

 Intro

eb|---------|---------|---------|---------|
Bb|---------|---------|---------|---------|
Gb|---------|---------|---------|---------|
Db|-5---5---|-5---5---|-5---5---|-5---5---|
Ab|---5---5-|---5---5-|---5---5-|---5---5-|
Eb|-3-------|-3-------|-3-------|-3-------|


Verse                   

eb|---------|---------|---------|---------|---------|---------|---------|---------|
Bb|---------|-3---3---|---------|---------|---------|---------|---------|---------|
Gb|-4---4---|---------|---------|---------|---------|---------|---------|---------|   ×2
Db|---5---5-|---5---5-|-7---7---|-5---5---|-5---5---|-5---5---|-5---5---|-5---5---|
Ab|---------|---------|---5---5-|---5---5-|---7---7-|---7---7-|---5---5-|---5---5-|
Eb|-3-------|-3-------|-3-------|-3-------|-3-------|-3-------|-3-------|-3-------|


         
eb|---------|---------|---------|---------|
Bb|---------|---------|---------|---------|
Gb|---------|---------|---------|---------|
Db|-5---5---|-5---5---|-5---5---|-5---5---|
Ab|---7---7-|---7---7-|---5---5-|---5---5-|
Eb|-3-------|-3-------|-3-------|-3-------|


Repeat this part two times per verse.

Chorus

eb|---------|---------|---------|---------|---------|---------|---------|---------|
Bb|---------|---------|---------|---------|-5---5---|-5---3---|-2---2---|-2---2---|
Gb|-4---4---|-5---5---|-7---7---|-7---7---|---0---0-|---0---0-|---0---0-|---0---0-|   
Db|---5---5-|---5---5-|---5---5-|---5---5-|---------|---------|---------|---------|
Ab|---------|---------|---------|---------|-3-------|-3---2---|-0-------|---------|
Eb|-3-------|-0-------|-7-------|---------|---------|---------|---------|---------|

  
eb|---------|---------|---------|---------|---------|---------|---------|---------|
Bb|-5---5---|-5---7---|-8---8---|-8---10--|-7---7---|-7---8---|-5---5---|-5---5---|
Gb|---0---0-|---0---0-|---0---0-|---0---0-|---0---0-|---0---0-|---0---0-|---0---0-|   
Db|---------|---------|---------|---------|---------|---------|---------|---------|
Ab|-3-------|-3---5---|-7-------|-7---7---|-5-------|-5-------|-3-------|-0-------|
Eb|---------|---------|---------|---------|---------|---------|---------|---------|

  
eb|---------|---------|---------|---------|---------|---------|
Bb|-5---5---|-5---5---|-5---5---|-5---5---|-5---5---|-3-------|
Gb|---0---0-|---0---0-|---0---0-|---0---0-|---0---0-|---0-5---|  
Db|---------|---------|---------|---------|---------|-------5-|
Ab|-3-------|-0-------|-3-------|-0-------|-3-------|-3---3---|
Eb|---------|---------|---------|---------|---------|---------|
  

To play this song, you have to play the parts in this order: 

Intro, Verse ×2, Chorus, Intro, Verse ×2, Chorus.

Drawn To Life – The End chords

 I think that this is pretty darn close to correct! Sorry if the chords aren't quite 
spaced correctly with the chords - most of the changes are either on beats one or three.


Intro:  D G D G D G 
You brought the rain and shine into my life
 D G 
I know you got to leave, but I'm not surprised
 D G A F# 
What's the use? Any way, I lose. And there's nothing I can do
                     Bm G 
Wanna know the truth? (Here, I do...)
         A Bm 
I'm already missing you


 Bm G 
And is this really worth saving?
 Bm G A 
If this can't work anymore?


 Bm G A F# 
And I can see you don't believe, so you'll pack up and leave
           Bm G 
I can't change it...
         A 
This is just the way it is


 Bm G A 
What if I revised his words deep into my soul?
 D G A Bm 
What if I see her smile, would it make me crave her more?
            G D A E 
What if I heard his voice and it gave me no other choice than to pray?
( E )
From day to day I wonder


 F#m D A E F#m D A E 
I'm not unsure, not quite certain though, where these problems came from
 F#m D A E F#m D A E 
I'm not unsure, not quite certain though, why I'm feeling so drawn...


         F#m Dbm D E 
Just because it always was and it will always be this way
 F#m Dbm D E Db F#m 
It works because all my love makes for a shining, shining day

                 Dbm D E D 
Against the rain, you feel the change, I start to wonder if I'm ever going to see you again...
                 E 
Then she tells me this is not the end.


 A D 
Drawn to the smile on your face
 A D 
But these are my dreams and this is your place


                        A D E Db 
If that's what you want, it's not what I need, I'm high and dry and you're at sea
         F#m D 
Don't leave (Im' listening)
         E 
You color ever breath I breathe


 F#m D 
'Cause if everything changes...
 F#m D 
Will this work anymore?


               F#m D E Db 
And I can see you don't believe as I'm ready to leave
                F#        m           D 
We can't change this (No...)
  A Db F#m 
Can we save this?


( F#m )                           D E A 
What if I told you the stars, he drew them only for you?
                   D E F#m 
What if I can't dream, 'cause I'm dreaming of you?
                 D A E B 
What have I got to lose if I never, ever reach the end of you?
( B )
I guess we'll find out soon



 Dbm A E B Dbm A E B 
I'm not unsure, not quite ce

Live Like You chords – Summertimes End

 Intro
 G D C  (x8)

Verse 1
 G C 
Sometimes I feel I must be worthless
         C G D 
But You said, have faith, and I'll do the rest
 G C 
I know I'm nothing close to perfect
         Em D 
But for You, I swear I'll do my best
 D Em D 
Oh oh oh oh

Chorus 1
 G D 
Save me a place in your heart tonight
 Am C 
Keep me secure as I hold on tight
 G D 
Steady my path when I feel unsure
 Am C 
Change my heart till it's more like Yours

Chorus 2
 G D 
Help me to live so Your glory shows
        Am C 
'Cause how I'm alive only Heaven knows
 G D 
Teach me to love them in all that I do
        Am C 
'Cause God, all I want is to live like You

Interlude
 G D C  (x4)

Verse 2
 G C 
I tried to find You by piling up my good deeds
     C G D 
But all my right turns got me back where I started
 G C 
Until you said, Son, I have what you need
     Em D 
And suddenly the shadows all departed
 D Em D 
Oh oh oh oh

Chorus 1
 G D 
Save me a place in your heart tonight
 Am C 
Keep me secure as I hold on tight
 G D 
Steady my path when I feel unsure
 Am C 
Change my heart till it's more like Yours

Chorus 2
 G D 
Help me to live so Your glory shows
        Am C 
'Cause how I'm alive only Heaven knows
 G D 
Teach me to love them in all that I do
        Am C 
'Cause God, all I want is to live like You

Bridge
 Em D 
Life is what you make of it
   Am C     
I see a chance and I'm taking it
 G D C 
Forgiveness is a gift I can't ignore

       Em D 
I'm a prisoner and You hold the key
   Am C 
O God, O God please set me free
    Em D C 
So I can make this life worth so much more
 G Bm C 
And live like You

Chorus 1
 G D 
Save me a place in your heart tonight
 Am C 
Keep me secure as I hold on tight
 G D 
Steady my path when I feel unsure
 Am C 
Change my heart till it's more like Yours

Chorus 2
 G D 
Help me to live so Your glory shows
        Am C 
'Cause how I'm alive only Heaven knows
 G D 
Teach me to love them in all that I do
        Am C 
'Cause God, all I want is to live like You

Outro
 G D C  (x4) end on  C

This Is The End For You My Friend chords – Anti-flag

 Anti-Flag
This Is The End For You My Friend
For Blood And Empire
2006
Submitted by: jeremyunderground41

Key:  C# 

Tuning: Standard EADGBe

Chords used:
 C#  -  x46664
 G#  -  466544
 Ebm  - x68876
 F#  -  244322
 Fm  -  133111
 F  -   133211
 Ebm  - x68876


Intro: Sidestick at Drums x2


Verse 1:
 Bbm Fm 
   Seems every 
  F# 
station on the tv 
 Bbm Fm F# 
   is selling something
 Bbm 
   no one can be
 Bbm Fm F# 
   if every page was torn
          Bbm 
from the magazine
 Bbm Fm F# 
   would gas still drive
     Bbm 
the media machine
 Bbm 
   the products they mean
    Fm F# Bbm 
us to pursue are endless
 Bbm Fm 
   identity can 
 F# Bbm Ebm (hold)
leave you selfless


Refrain:
 F# 
  we will not witness
 Fm (hold)
  this anymore


Chorus 1:
 C# G# 
  this is  the end
 Bbm Fm F# 
   for you  my friend
 C# G# 
  i can't  forgive
 Bbm Fm F# 
   i wont  forget
 C# 
on and on we 
 G# 
sing out songs and
 Bbm 
on and on the
 F# 
wars wage on and
 C# G# 
on and on we sing our
          Bbm Fm F# Bbm (hold)
song for more 
for more


Post Chorus: Guitar Solo
Bbm--Fm-F#- x4


Verse 2:
 Bbm Fm F# 
   your eyes are open
 Bbm 
   but you can't see 
 Bbm Fm F# 
   your mouth is moving
 Bbm 
   but you don't speak 
 Bbm Fm 
   a blitzkrieg of
 F# Bbm 
images to break your
     Bbm Fm 
will   And i hope you
 F# Bbm Ebm (hold)
choke on every pill


(Repeat Refrain)


Chorus 2:
 C# G# 
  this is  the end
 Bbm Fm F# 
   for you  my friend
 C# G# 
  i can't  forgive
 Bbm Fm F# 
   i wont  forget
 C# 
on and on we 
 G# 
sing out songs and
 Bbm 
on and on the
 F# 
wars wage on and
 C# G# 
on and on we sing
our song for more 


Bridge:
 Bbm F# 
   whoa oh  woah oh
 C# F 
  woah oh woah
 Bbm F# 
   whoa oh  woah oh
 C# F 
  woah oh woah
 Bbm F# 
   whoa oh  woah oh
 C# F 
  woah oh woah
 Bbm F# 
   whoa oh  woah oh
 C# F 
  woah oh woah
 Bbm F# 
   whoa oh  woah oh
 C# F 
  woah oh woah
 Bbm F# 
   whoa oh  woah oh
 C# F 
  woah oh yeah yeah


(Repeat Refrain)


Chorus 3:
 C# G# 
  this is  the end
 Bbm Fm F# 
   for you  my friend
 C# G# 
  i can't  forgive
 Bbm Fm F# (hold)
   i wont  forget


Chorus 4:
 C# G# 
  this is  the end
 Bbm Fm F# 
   fo

In The End Acoustic Tabs by Linkin Park V2

 This is my first TAB and it id right… get used to it ;)

Tuning: Drop D

The piano thingy:

E|----------------------------|
B|----------------------------|
G|----------------------------|
D|0-7-7-3-222230-7-7-3-222230-|
A|--------3---1--------3---1--|
D|0------------0--------------|

The verses:

E|-------------------------|
B|------111111------111111-|
G|------000000333333000000-|   Repeat until chrous
D|000000222222333333222222-|   My strumming pattern
A|000000333333111111333333-|   DDDUDD
D|000000-------------------|

The Chrous:

E|000000------222222-------|
B|000000111111333333111111-|  My strumming pattern
G|000000000000222222000000-|  Either:
D|222222222222------222222-|  DDDDDD or DDUDUD
A|222222333333------333333-|
D|-------------------------|

Breakdown is the same as the introduction!
The ending is the same as the introduction!

Structure:

Intro
Verse
Chrous
Verse
Chorus
Breakdown (intro)
Chrous
Ending (intro)

Friday Night Dont Ever Let It End intro Tabs by Spector

 -------------------------------------------------------------------------------
                         FRIDAY NIGHT DON'T EVER LET IT END - Spector
-------------------------------------------------------------------------------
: TODV
 thijssie92@hotmail.com

Tuning: EADGBe

e|--------------10--12--13--12--10----------10-------------------------------|
B|----------------------------------13--10------10---------------------------|
G|---10--17\10--------------------------------------12--10--12---------------|
D|---------------------------------------------------------------------------|
A|---------------------------------------------------------------------------|
E|---------------------------------------------------------------------------|

To get closest to the actual sound on the record use lots of sustain and a tiny bend 
after the final note. Enjoy!

************************************

| /   slide up
| \   slide down
| h   hammer-on
| p   pull-off
| ~   vibrato
| +   harmonic
| x   Mute note
| b   Bend
| pb  Pre-bend
| br  Bend release
| pbr Pre-bend release
| brb Bend release bend

************************************

This Will Not End Well chords – Wussy

 G D 
Mother-daughter banquet at the Bethel Baptist Church.
 G D 
You forgot her. That was bad, but I did something worse.
 C G 
Bitter memories will lessen as you live.
 C G 
"Bygones are bygones," she says as she forgives,
           D G 
But I can tell this will not end well.

 G D 
I beg your pardon if what I've done has thrown you off your course.
 G D 
It's kindergarten, and you're jumping on a dead and bloated horse.
 C G 
Teacher tells you she'll snatch you from your shoes.
 C G D 
You think about it, and the answer that you choose is "Go to hell."
                   G 
This will not end well.

 G D 
If it's now or never, never is the one that's gonna win.
 G D 
Then there's forever - we're waiting on forever to begin.
 C G 
Our days are numbered, and the hour is drawing near.
 C G D 
Call me a killjoy, but I don't think I hear those wedding bells.
                   G 
This will not end well.

Preaching The End Of The World chords – Chris Cornell V3

 Artist: Chris Cornell
Song: Preaching The End Of The World
 Euphoria Morning


Verse 1:
 A Asus2 F#m F#m7/E 
Hello, I know theres someone out there who can understand
     D AMaj7/C#      Bm7b5      E   (Riff 1)
And whos feeling the same way as me
 A Asus2 F#m F#m7/E 
Im twenty-four and Ive got everything to live for
        D AMaj7/C#       Bm7b5     Esus4 E 
But I know now that it wasn't meant to be


Verse 2:
 Em7 E7 Asus4 A 
 Cause all has been lost and all has been won
             D Dsus2 Dm   
And theres nothing left for us to save
    (Riff 2)         A E/G# F#m F#m7/E 
But now I know that I dont want to be alone today
            D D7 Esus4 E 
So if you find that you've been feeling just the same


Chorus:
 E Bm 
Call me now its allright
              F#m F#m7/E 
Its just the end of the world
              D AMaj7/C# 
You need a friend in the world
                 C (b5)
cause you cant hide
    B7sus4 B7 Esus4 E 
So call and I'll get right back
            F# F#/A# 
If your intentions are pure
                B7 E A E   (Riff 1)
Im seeking a friend for the end of the world


Verse 1:
 A Asus2 F#m F#m7/E 
 I've got a photograph, Ill send it off today
     D AMaj7/C#        Bm7b5    E   (Riff 1)
And you will see that I am perfectly sane
 A Asus2 F#m F#m7/E 
 Not for a lifetime or forever and a day
        D AMaj7/C#       Bm7b5       Esus4 E 
cause we know now that just wont be the case


Chorus:
 E Bm 
Call me now its allright
              F#m F#m7/E 
Its just the end of the world
              D AMaj7/C# 
You need a friend in the world
                 C (b5)
cause you cant hide
    B7sus4 B7 Esus4 E 
So call and I'll get right back
            F# F#/A# 
If your intentions are pure
                B7 E A E   (Riff 1)
Im seeking a friend for the end of the world


Bridge:
 D D7       
 There will be no commitment and no confessions
  G G7 C CMaj7 C 
And no little secrets to keep
 Cm G/B G 
 No little children or houses with roses
          B7 E Esus4 E 
Just the end of the world and me


Verse 2:
 Em7 E7 Asus4 A 
 Cause all has been gone and all has been done
             D Dsus2 Dm     
And theres nothing left for us to say
    (Riff 2)        A E/G# F#m F#m7/E 
But we could be together as they blow it all away
            D D7 Esus4 E 
And we can share in every moment as it breaks


Chorus:
 E Bm 
Call me now its allright
              F#m F#m7/E 
Its just the end of the world

Linkin Park – In The End Chords

Bm 
It__ starts__ with__ - one thing - I don't know why
    A  
It doesn't even matter how hard you try
 G 
keep that in mind I designed this rhyme
 A 
to explain in due time
           Bm 
All__ I__ know__ - Time is a valuable thing
 A  
Watch it fly by as the pendulum swings
 G 
Watch it count down to the end of the day
           A  
The clock ticks life away
             Bm 
It's__ so__ unreal__ - Didn't look out below
 A 
Watch the time go right out the window
 G 
Trying to hold on, but didn't even know
 A 
Wasted it all just to
              Bm D5 A5 
Watch__ it__ go___________________________________________________
                             I kept everything inside and even
 A 
though I tried, it all fell apart
 G 
What it meant to me will eventually
      A  
be a memory of a time when

                  B5 D5 
I__ tried__ so__ hard___  And_ got_ so_ far__
            A5 G 
But in the end__    It doesn't even mat__ter__
                B5 D5 
I__ had__ to__ fall___  to_ lose_ it_ all____
            A5 G 
But in the end__    It doesn't even mat__ter__er_er_er__

 Bm 
One thing - I don't know why
    A  
It doesn't even matter how hard you try
 G 
keep that in mind I designed this rhyme
 A 
to remind myself how
                  Bm 
I__ tried__ so__ hard___ In spite of the way you were mocking me
 A 
Acting like I was a part of your property
 G 
Remembering all the times you fought with me
 A 
I'm surprised
                 Bm 
It__ got__ so__ far__ Things  aren't  the way they were before
 A 
You wouldn't even recognize me anymore
 G 
Not that you knew me back then
        A  
But it all comes back to me
        Bm 
In the end_____________________________________________
                 You kept everything inside and even
 A 
though I tried it all fell apart
 G 
What it meant to me will eventually
      A  
be a memory of a time when

                  B5 D5 
I__ tried__ so__ hard___  And_ got_ so_ far__
            A5 G 
But in the end__    It doesn't even mat__ter__
                B5 D5 
I__ had__ to__ fall___  to_ lose_ it_ all____
            A5 G 
But in the end__    It doesn't even mat__ter__er_er_er__

            Bm A G A  
I

Linkin Park – in the end Chords 02

e]---0--7--7--3--2--2--2--2-3-0
b]-----------------------------
g]-----------------------------
d]-----------------------------
a]-----------------------------
e]-----------------------------

e]---7--7--3--2--2--2--2-3-0-- 
b]----------------------------
g]----------------------------
d]----------------------------
a]----------------------------
e]----------------------------

e]---7--7--3--0--------------
b]---------------------------
g]---------------------------
d]---------------------------
a]---------------------------
e]---------------------------

                    Am                     
It  starts  with - one thing - I don't know why
 G     
It doesn't even matter how hard you try
 Bm 
keep that in mind I designed this rhyme
 C Am 
to explain in due time

                Am           
All  I  know - Time is a valuable thing
 G 
Watch it fly by as the pendulum swings
 Bm 
Watch it count down to the end of the day
 C Am            
The clock ticks life away

                     Am    
It's  so  unreal  - Didn't look out below
 G 
Watch the time go right out the window
 Bm 
Trying to hold on, but didn't even know
 C Am 
Wasted it all just to
         Am Dm G                 
Watch  it go   [I kept everything inside and even]
 C 
though I tried, it all fell apart
 Am 
What it meant to me will eventually
 Em       
be a memory of a time when

                 
 C Am                      
I  tried  so  hard   And  got  so  far
 F Em                                   
But in the end    It doesn't even matter
 Am C                                     
I had to fall  to lose it  all
 F Em G                                   
But in the end    It doesn't even mattereeer

                    Am                     
It  starts  with - one thing - I don't know why
 G     
It doesn't even matter how hard you try
 Bm 
keep that in mind I designed this rhyme
 C Am 
to remind myself how
                 







 Am 
I tried so hard In spite of the way you were mocking me
 G 
Acting like I was a part of your property
 Bm 
Remembering all the times you fought with me
 C 
I'm surprised

 Am                 
It got so far Things  aren't  the way they were before
 G 
You wouldn't even recognize me anymore
 Bm 
Not that you knew me back then
 C         
But it all comes back to me
     Am Dm Em    
In the end  [You kept everything inside and even]
 C       
thou

Linkin Park – In The End Tabs 7

e-----------|---------------|------------|----------------
b--0--0-----|---------------|---0--0-----|----------------
g-------0---|-------------0-|---------0--|-------------0-- 
d-2---------|--4--4--4--4---|-2----------|-4--4--4--4-----
a-----------|--5------------|--3---------|-5--------------
e-----------|---------------|------------|----------------


e-----------|---------------|------------
b--0--0-----|---------------|---0--0-----
g-------0---|-------------0-|---------0-- 
d-2---------|--4--4--4--4---|-2----------
a-----------|--5------------|--3---------
e-----------|---------------|------------

NOTA: esta es la misma tablatra de acustica y de elctrica

Linkin Park – In The End Tabs 29

Intro

|-------------------------------------|
|-------------------------------------|
|-------------------------------------|
|----3-3------------------------------|
|-1------4--3--3--3--4--3--1----------|
|-------------------------------------|

|-------------------------------------|
|-------------------------------------|
|-------------------------------------|
|----3-3------------------------------|
|--------4--3--3--3--4--3--1----------|
|-------------------------------------|

|-------------------------------------|
|-------------------------------------|
|-------------------------------------|
|----3-3------------------------------|
|----------4---3----------------------|
|-------------------------------------|

Solo me se el intro si me se mas la pongo

Linkin Park – In The End Tabs 95

Nombre: In the end (al final, en español)
Banda: Linkin Park
Disco: Hybrid theory
Dificultad: 2/5, bastante facil
fuente de la tablatura: un tipo de ultimateguitar.com


NOTA: en general los acordes de la cancion son D#m F# C# B y sucesivamente. Transpotado a la menor seria Am C G F




INTRO (piano):
  D#m     F#         C#      B   
e|-----------------------------------------
B|-----------------------------------------
G|---3-3---------------3-3-----------------
D|-1-----4-3-3-3-3-4-1-----4-3-3-3-3-4-1---
A|-----------------------------------------
E|-----------------------------------------  X bastantes veces



VERSOS (guitarra):
  
  D#m     F#    C#      B
e|------------------------------
B|-16---------------------------
G|------16-15---13---16-15------
D|------------------------------
A|------------------------------
E|------------------------------



ESTRIBILLO (guitaras distorcionadas):

I try so hard, and get so far, in the end, it doesnt even matters
e|---------------------------------------------------------------
B|---------------------------------------------------------------
G|---------------------------------------------------------------
D|--------1----------------4-------------------------------4-----
A|--------1----------------4-----------4-------------------2-----
E|-------------------------2-----------4-------------------------

I`ve to fall, to lose it all, in the end, it doesnt even matters
e|---------------------------------------------------------------
B|---------------------------------------------------------------
G|---------------------------------------------------------------
D|-------1----------------4-------------------------------4------
A|-------1----------------4-----------4-------------------2------
E|------------------------2-----------4--------------------------


ESTRIBILLO (voz):

I try so hard, and get so far, in the end, it doesnt even matters
e|-----4--6-----6---6--------------4---6---6---6--6--6-6---7--6--
B|7-7-------------------7--7---7---------------------------------
G|---------------------------------------------------------------
D|---------------------------------------------------------------
A|---------------------------------------------------------------
E|---------------------------------------------------------------

I`ve to fall, to lose it all, in the end, it doesnt even matteers
e|----4--6-----6--6---------------4---6---6---6--6--6-6---7-6-4-----
B|7-7-----------------7---7----7--------------------------------7---
G|------------------------------------------------------------------
D|------------------------------------------------------------------
A|------------------------------------------------------------------
E|------------------------------------------------------------------




REPETIR VERSOS 

REPETIR ESTRIBILLO




PRINCIPIO DEL PUENTE (piano):

  D#m     F#         C#      B   
e|-----------------------------------------
B|-----------------------------------------
G|---3-3---------------3-3-----------------
D|-1-----4-3-3-3-3-4-1-----4-3-3-3-3-4-1---
A|-----------------------------------------
E|----------------------------------------- x2


FINAL DEL PUENTE (Guitarras distorcionadas):

I put my trust in you, I push as far as I can go
e|----------------------------------------------------
B|----------------------------------------------------
G|----------------------------------------------------
D|---------1--------4--------------------------4------
A|---------1--------4-------------4------------2------
E|------------------2-------------4-------------------

For all this, there`s only one thing you should knoooow!!!
e|-----------------------------------------------------------
B|-----------------------------------------------------------
G|-----------------------------------------------------------
D|--------1----------------4--------------------------4------
A|--------1----------------4---------------------4----2------
E|-------------------------2

Linkin Park – In The End

Verso x4

G|------------------------------------------------|
D|------------------------------------------------|
A|-6-6-6-6-6-6-4-4-4-4-4-4-2-2-2-2-2-2-4-4-4-4-4-4|
E|------------------------------------------------|

Coro x2

G|-----------------------------------------|
D|-----------------------------------------|
A|-6-6-6-6-------------4-4-4-4---2-2-2-2---|
E|-----------2-2-2-2-----------------------|

Verso x4

G|------------------------------------------------|
D|------------------------------------------------|
A|-6-6-6-6-6-6-4-4-4-4-4-4-2-2-2-2-2-2-4-4-4-4-4-4|
E|------------------------------------------------|


Coro x2

G|-----------------------------------------|
D|-----------------------------------------|
A|-6-6-6-6-------------4-4-4-4---2-2-2-2---|
E|-----------2-2-2-2-----------------------|

Puente

G|-------------------------------------|---------------------------------|
D|-------------------------------------|---------------------------------|
A|-6-6-6----4-4-4----2-2-2----4-4-4----|-6-6-6----4-4-4----2-2-2----4----|
E|-------------------------------------|---------------------------------|

G|-----------------------------------------|
D|-----------------------------------------|
A|-6-6-6-6-------------4-4-4-4---2-2-2-2---|
E|-----------2-2-2-2-----------------------| x2

Coro x2

G|-----------------------------------------|
D|-----------------------------------------|
A|-6-6-6-6-------------4-4-4-4---2-2-2-2---|
E|-----------2-2-2-2-----------------------|

Linkin Park – In The End

La afinación del bajo es: D,A,E,B

verse
D|---------------------------------------------|
A|---------------------------------------------|
E|---------------------------------------------| X4
B|-3333-43333-1111-21111-0000-10000-1111-21111-|

chorus
D|-----------------------------------------------------------------
A|-----------------------------------------------------------------
E|------------------1111111111111111-------------------------------
B|-3333333333333333------------------1111111111111111-000000000000-
continued
------|
------|
------| X2
-1111-|

fill
D|-----------------------------|
A|-----------------------------|
E|-------------------------1-1-| X1
B|-3333_-1111_-0000_-1111_-----|

verse X3

chorus X2

interlude
D|-----------------------------|
A|----------------1-0----------|
E|--------------------1_-------| x1
B|-3_-1_-0_-1_-3_--------1_-0_-|

bridge
D|-------------------------------------------------|
A|-------------------------------------------------|
E|-------------11-11111111-------------------------| X2
B|-33-33333333-------------11-11111111-00-00000111-|

chorus X2

end
D|---|
A|---| let note run until it goes dead
E|---| X1
B|-3-|

Dead End Friends Tab by Them Crooked Vultures

Unfinished at the moment, just running through the tracks

Tuning: Standard but album tuning is probably drop-d

Intro:
e|--------------------------------------------|
B|--------------------------------------------|
G|-18-18-18-14-17-17-17-----------------------|
D|-x--x--x--x--x--x--x------------------------|x4
A|-16-16-16-12-15-15-15-9-11-11-11-9-11-11-11-|
E|----------------------7-9--9--9--7-9--9--9--|

Verse:(Different ending for second part but may just be on second guitar)
e|----------------------------------------|
B|----------------------------------------|
G|----------------------------------------|
D|-11--11-9-11--11-9-11--11-9-11-12-12-12-|x2
A|-9---9--7-9---9--7-9---9--7-9--10-10-10-|
E|----------------------------------------|

e|------------------------------|
B|------------------------------|
G|------------------------------|
D|------------------------------|x2
A|-6--6-4-6--6-4-6--6-4-6-7-7-7-|
E|-4--4-2-4--4-2-4--4-2-4-5-5-5-|

Fill Riff:
e|----------------------------|
B|----------------------------|
G|-13--13-9-------------------|
D|----------11--11-9-11-9-----|
A|------------------------11/-|
E|----------------------------|