Tag: eternal

A Quick One Before The Eternal Worm Devours Connecticut Tabs by Have A Nice Life V3

 Hard to hear the different guitar parts at times,
but guitar one is accurate after much checking. Let all notes ring. Play gently.

For best effect, play over an A drone.


Guitar 1
   Dmaj
   1  2  3  4  5  6  1  2  3  4  5  6  1  2  3  4  5  6  1  2  3  4  5  6
e|---------------------------------------------------------------------------|
B|---------------------------------------------------------------------------|
G|---------------------------------------------------------------------------|
D|-4--7-----------7--4--7-----------7--4--7-----------7--4--7-----------7----|
A|-5-----------------5-----------------5-----------------5-------------------|
E|---------------------------------------------------------------------------|

   Amaj7
   1  2  3  4  5  6  1  2  3  4  5  6  1  2  3  4  5  6  1  2  3  4  5  6
e|---------------------------------------------------------------------------|
B|---------------------------------------------------------------------------|
G|---------------------------------------------------------------------------|
D|-------6--7--6-----------6--7--6-----------6--7--6-----------6--7--6-------|
A|-4--7-----------7--4--7-----------7--4--7-----------7--4--7-----------8----|
E|-5-----------------5-----------------5-----------------5-------------------|

Guitar 2
   Dmaj7
   1  2  3  4  5  6  1  2  3  4  5  6  1  2  3  4  5  6  1  2  3  4  5  6
e|----------9-----------------9-----------------9--------------12------------|
B|-------10----10----------10----10----------10----10-------------10----10---|
G|----11----------11----11----------11----11----------11----11-------11------|
D|-12----------------12----------------12----------------12------------------|
A|---------------------------------------------------------------------------|
E|---------------------------------------------------------------------------|

   Amaj7/C#                                              C#7
   1  2  3  4  5  6  1  2  3  4  5  6  1  2  3  4  5  6  1  2  3  4  5  6
e|----------9-----------------9-----------------9--------------10-------10---|
B|-------9-----9-----------9-----9-----------9-----9--------9--------9-------|
G|----9-----------9-----9-----------9-----9-----------9--10-------10---------|
D|-11----------------11----------------11------------------------------------|
A|---------------------------------------------------------------------------|
E|---------------------------------------------------------------------------|