Tag: everyone

Everyone Can Fly chords – Gigolo Aunts

 This is my first attempt at getting the tabs from a song. Please comment and improve it! Enjoy :)

Capo 2

 Em D 
Turn off your mind
        Am C 
And go back with me to a better time
 Em D 
Do you see the same moon I do
      Am C 
When I'm thinking of you

 Em D 
Well that's ok
         Am C 
We can try again another day
 Em D 
Do you feel the same breeze I feel
             Am 
Lifting you up
             C 
Lifting me up
            G9 
Lifting us up

CHORUS

         G9 C9 C9 
        'Cause everyone can fly
 G9 G9 C9 C9 
        Everyone can fly
 G9 G9 C9         
        Everyone can fly
 C9 Am 
You just have to try


 Em D 
Turn off the lights
           Am C 
And don't be afraid of another night
         Em D 
Do the promises you couldn't keep
          Am C 
Make it hard for you to sleep

 Em D 
   Well that's ok
       Am C 
Everybody makes the same mistakes
         Em D 
As the stars shine the night away
                   Am 
Let them lift you up
                   C   
Let them lift you up
                   G9 
Let them lift you up

CHORUS

         G9 C9 C9 
        'Cause everyone can fly
 G9 G9 C9 C9 
        Everyone can fly
 G9 G9 C9         
        Everyone can fly
 C9 G9 
You just have to try

           C9 G9 C9        
Did you ever stop and think when you were twenty 
 G9 C9 Em 
      You'd be where you are today
           D Am 
Isn't it funny how things change
              C Em Em 
Some things never stay the same
            D 
What a shame...

 Em D Am C Em D 
Forget the grey
           Am C 
I can see you turning a greener shade
 Em D 
Do you feel the same faith I feel
                 Am 
Let it lift you up
                  C 
Let it lift you up
                 G9 
Let it lift you up

CHORUS

'Cause everyone can fly
Everyone can fly
Everyone can fly
You just have to try
You just have to try
You just have to try
Everyone can fly...


Like You And Everyone Else chords – Beth Hart V2

 Artist: Beth Hart
Title: Like You (And Everyone Else)
 My California
Words & Music: Beth Hart

CAPO I

 E 
I've been to Hell and it looked just like Heaven,
 C#m 
I made a friend and I felt forgiven,
 Asus2 F#M 
Like you, and everyone else...

 E 
I am ashamed but, I am just human,
 C#m 
With oceans of dreams, and seas of confusion,
 Asus2 F#M 
Like you... and everyone else...

         E 
CHORUS: Holding my breath when I just want to scream,
         B 
        Hidin' the face I don't want you to see,
         C#m Asus2 
        Making a mess of myself trying to be like you,
        And everyone else...

 E 
They put me away, and told me I'm crazy,
 C#m 
I don't belong but, but maybe they'll save me,
 Asus2 
Talk to the pain, it's been here forever,
 F#M 
The drugs make me sane, but they don't make me better..

         E        
CHORUS: Holding my breath when I just want to scream,
         B 
        Hiding the face, I don't want you to see,
         C#m Asus2 
        Making a mess of myself trying to be like you, like you...
         E 
        Losing my faith when I say I believe,
         B 
        Looking at you for the answers I need,
         C#m Asus2 
        Walking away from myself, trying to be like you, 

                            
                 D \ F# F#M E 
And everyone else haaa-aa haaaa-aa
       D \ F# F#M E 
Everyone else.. haaa-aaa haaaa-aaa
 D \ F# F#M E 
Talk to me, talk to me, talk to me... till this is over..
 D \ F# F#M C#M       D\ F# 
Talk to me, talk to me, talk to me... I am worth fighting for...


 E 
Holding my breath when I just want to scream,
 B 
Hiding the face, I don't want you to see,
 C#m Asus2 
Making a mess of myself trying to be like you, like you..
 E 
Losing my faith when I say I believe,
 B 
Looking at you for the answers I need,
 C#m Asus2 
Walking away from myself, trying to be like you, and everyone else.
 E 
(Talk to me, talk to me, talk to me, everyone else...
 B 
Talk to me, talk to me, talk to me, like you...
 C#m Asus2 
Talk to me, talk to me, talk to me, everyone else...)

 E 
Walk in the rain, let it fall on my face.
 C#m 
There's a shadow of doubt but a sky full of grace,
 F#M G#M Asus2 
I'm not like you, and everyone else



CHORDS USED (IN RELATION TO CAPO)

                  EADGBE
              E   = 022100
             C#M  = 446654
            Asus2 = 002200
             F#M  = 244222
               B  = 224442
            D \ F#  = 2X0232 
             G#M  = 466444

____________________________________________________________________________
 Vixen79


Love Comes To Everyone chords – George Harrison V3

 LOVE COMES TO EVERYONE  -       George Harisson


Intro:
 C#m7  -  F#m7  -  Bm7  -  E7  -  E13       2x       A C#m7                                                          
      Go do it,
 F#m7 Bm7                                   
     got to go through that      door,
            E7 E13 C#m7                              
there's no     easy way       out at        all 
           F#m7                                                 
still it       only takes time
       Bm7 E7 E13 A A/B  -  A/C                        
'til      love     comes to       every -     one 


      C#m7 F#m7                                           
For       you who it       always seems blue
     Bm7 E7 E13                                  
it      all comes, it      never      rains
             C#m7                                               
but it all        pours,
           F#m7                                                 
still it       only takes time 
       Bm7 E7 E13 A A/B  -  A/C                        
'til      love     comes to       every -     one 


Chorus:
 A Dmaj7                                            
   There in your        heart 
 A E D C#m7                          
   something that's     never     chan -        ging
 A Dmaj7                                                 
   always a         part of 
 A E D C#m7                             
   something that's     never     a -        ging,
         Bm7                                                   
that's       in your heart 


 C#m7 F#m7 Bm7                        
      It's so true       it can happen to you      all
         E7 E13 C#m7                            
there,     knock and it will      open        wide,
         F#m7                                                   
and it        only takes time
       Bm7 E7 E13 A A/B  -  A/C                        
'til      love     comes to       every -     one 


Break:
 C#m7  -  F#m7  -  Bm7  -  E7  -  E13       2x       A  -  A/B  -  A/C C#m7  -  F#m7  -  Bm7  -  E7  -  E13       2x       A  


Chorus:
 A Dmaj7                                            
   There in your        heart 
 A E D C#m7                          
   something that's     never     chan -        ging
 A Dmaj7                                                 
   always a         part of 
 A E D C#m7                             
   something that's     never     a -        ging,
         Bm7                                                   
that's       in your heart 


 C#m7 F#m7 Bm7                         
     It's so true       it can happen to you       all
          E7 E13 C#m7                          
there,      knock and it will       open        wide,
         F

Everyone I Know Has Fangs Tabs by He Is Legend V2

 ---------------------------------------------
  Everyone I Know Has Fangs - He Is Legend
---------------------------------------------
: millarso (Jake Miller)
 millarso2.0

Tuning: Drop C

SECTION 1
Guitar 1 (maybe both?)
D|------------------------------------------------------------------|
A|---------9b10r9---------10b11-10---------9b10r9-------------------|
F|-10~---9--------10-9~------------10~---9--------10-9~------10~----|
C|------------------------------------------------------12-------11-|x2
G|------------------------------------------------------------------|
C|------------------------------------------------------------------|

SECTION 2
Guitar 2
D|---------------------------|
A|---------------------------|
F|---------------------------|
C|---7-6-----7-6-----7-6-----|
G|-------------------------8-|
C|-0-----0-0-----0-0-----0---|

SECTION 3
Guitar 1 (Left Stereo)
D|---------------------------------------------------------|
A|---------------------------------------------------------|
F|------------------------------9--9-9-9-910---------------|
C|-12-1212121210--7--7-7-7-7-8--x--x-x-x-x-x--9--9-9-9-910-|
G|--x--x-x-x-x-x--x--x-x-x-x-x--7--7-7-7-7-8--x--x-x-x-x-x-|
C|-12-1212121210--7--7-7-7-7-8----------------9--9-9-9-910-|
||
Guitar 2 (Right Stereo)
D|---------------------------------------------------------|
A|---------------------------------------------------------|
F|------------------------------5--5-5-5-5-7---------------|
C|-8--8-8-8-8-10--3--3-3-3-3-5--5--5-5-5-5-7--5--5-5-5-5-7-|
G|-8--8-8-8-8-10--3--3-3-3-3-5--3--3-3-3-3-5--5--5-5-5-5-7-|
C|-8--8-8-8-8-10--3--3-3-3-3-5----------------5--5-5-5-5-7-|

Guitar 1
D|---------------------------------------------------------|
A|---------------------------------------------------------|
F|------------------------------9--9-9-9-910---------------|
C|-12-1212121210--7--7-7-7-7-8--x--x-x-x-x-x--9--9--9--910-|
G|--x--x-x-x-x-x--x--x-x-x-x-x--7--7-7-7-7-8--x--x--x--x-x-|
C|-12-1212121210--7--7-7-7-7-8----------------9--9--9--910-|
||
Guitar 2
D|---------------------------------------------------------|
A|---------------------------------------------------------|
F|------------------------------5--5-5-5-5-7---------------|
C|-8--8-8-8-8-10--3--3-3-3-3-5--5--5-5-5-5-7--5--5--5--5-7-|
G|-8--8-8-8-8-10--3--3-3-3-3-5--3--3-3-3-3-5--5--5--5--5-7-|
C|-8--8-8-8-8-10--3--3-3-3-3-5----------------5--5--5--5-7-|

Guitar 1
D|---------------------------------------------------------|
A|---------------------------------------------------------|
F|------------------------------9--9-9-9-910---------------|
C|-12-1212121210--7--7-7-7-7-8--x--x-x-x-x-x--9--9-9-9-910-|
G|--x--x-x-x-x-x--x--x-x-x-x-x--7--7-7-7-7-8--x--x-x-x-x-x-|
C|-12-1212121210--7--7-7-7-7-8----------------9--9-9-9-910-|
||
Guitar 2
D|---------------------------------------------------------|
A|---------------------------------------------------------|
F|------------------------------5--5-5-5-5-7---------------|
C|-8--8-8-8-8-10--3--3-3-3-3-5--5--5-5-5-5-7--5--5-5-5-5-7-|
G|-8--8-8-8-8-10--3--3-3-3-3-5--3--3-3-3-3-5--5--5-5-5-5-7-|
C|-8--8-8-8-8-10--3--3-3-3-3-5----------------5--5-5-5-5-7-|

Guitar 1
D|----------------------------------------------------------------------|
A|----------------------------------------------------------------------|
F|----------------------------------------------------------------------|
C|-12-1212121210--7--7-7-7-7-8--7-7-7-7-7-7-7-7-11-11-11-11-11-11-11-11-|
G|--x--x-x-x-x-x--x--x-x-x-x-x--7-7-7-7-7-7-7-7-11-11-11-11-11-11-11-11-|
C|-12-1212121210--7--7-7-7-7-8--7-7-7-7-7-7-7-7-11-11-11-11-11-11-11-11-|
||
Guitar 2
D|----------------------------------------------------------------------|
A|----------------------------------------------------------------------|
F|------------------------------6-6-6-6-6-6-6-6-10-10-10-10-10-10-10-10-|
C|-8--8-8-8-8-10--3--3-3-3-3-5--x-x-x-x

Everyone Knows Tabs by Easyworld V2

 Everyone knows

riff 1

e-------------------|
B-------------3-3-3-|
G-2-5/6-6-6---2-2-2-|
D-2-5/6-6-6-4-0-0-0-|
A-0-3/4-4-4-4-0-0-0-|
E-----------2-------|

riff 2

e---------------------------------------------|
B---------------------------------------------|
G-14-14-14-14-10-10-10-10-11-11-11-11-7-7-9-9-|
D---------------------------------------------|
A-12-12-12-12-8--8--8--8--9--9--9--9--5-5-7-7-|
E---------------------------------------------|

riff 3

b-2b3r2b3r2b3r2b3-10-3-5

Intro

riff 1 x4 clean
riff 1 x4 distorted

Verse 1

riff 2 x4
yeah yeah yeah its some fine revolution
and theres nobody can keep you down
ive paid you bitch now love me yeah cos
thats the way it is now

riffs 2+3 x4
hey hey hey dya know where your kids are
and kids dya know what the grown ups do
cos they all smoke crack in the teachers lounge
and then they beg you not to

Chorus

riff 1 x4
everyone knows that its all lies
theres nothing else on tv tonight

Verse 2
same music as verse 1

well happiness is some cubic zirconia
and one day son it could all be yours
just pin your hopes on industrial illness
and settle out of court

hey hey hey dya know where your kids are
and kids dya know what the grown ups do
cos they all smoke crack in the teachers lounge
and then they beg you not to

Repeat Chorus

Middle 8

e----------------------------------------------------------|
B----14----15----14----17----14----15----14----14h15p14----|
G-14----14----14----14----14----14----14----14----------14-|
D----------------------------------------------------------|
A----------------------------------------------------------|
E----------------------------------------------------------|

e-----------------------------------------|
B-----------------------------------------|
G-9-9-9-9-10-10-10-10-11-11-11-11-7-7-7-7-|
D-----------------------------------------| x3
A-7-7-7-7-8--8--8--8--9--9--9--9--5-5-5-5-|
E-----------------------------------------|

e--------------------------------|
B---------------------17---------|
G-6-6-6-6-13-13-13-13----14b16~~-|
D--------------------------------|
A-4-4-4-4-11-11-11-11------------|
E--------------------------------|

Repeat Chorus x2

End on A

Everyone Is My Friend Tabs by Owls

 Everyone is My Friend
Owls
jjjddd

EAC#F#Bbe - i have absolutely no idea if the tuning is right, it just kind of
worked out this way from looking at hand placement and other bits of tab written for the song

intro part
e |---12----0----9\7p0-------------------|
Bb|--x---10------------3/6---------------|
F#|-x---------12------------5/7(\5)------|
C#|--------------------------------------|
A |--------------------------------------|
E |---------------------------------575--|
                                    ***
main riff
e |-0-------0---------------------------| 
Bb|---6---5---5-------------------------|
F#|-----5-------5-----0---5-------------|
C#|---------------5h7---7---7-----------|
A |-------------------------------------|
E |---------------------------7777-775--|
                              ***  **

modified version of the intro/verse
e |---12----0----9\7p0---00--------------------|
Bb|--x---10----------------5-------------------|
F#|-x---------12--------5-------0-5------------|
C#|--------------------------5h7-7-7-----------|
A |--------------------------------------------|
E |--------------------5-------------7777-775--|
                                     ***  **

the modified intro part is played several times during the second half of the song
havent wrote down when they come in, im sure if youre dedicated enough you can do it yourself

cant figure out the solos just yet, any suggestions are welcome

Fight For Everyone chords – The Leisure Society

  Sam de Brunner
Tuning: Standard
Capo: 5
Chords relative to capo

Intro
 F C Am G   (X3)
 F C G Am C  (one strum of  C )
 F C Am G F C G Am C  (one strum)

             F C  
When you're saved by the ring of the bell
       Am G F C G Am C 
Is it hard to relax when you're told that you can never fail?
         F C 
Has the spit that you spit from your teeth
      Am G F C 
Been replaced by a taste that has all but lost its novelty
                   Am G 
You don't need to change
               F G 
You just need fire and a little faith


 F C Am G F C G Am C 
In order to get what you want done, you must fight for everyone
 F C Am G 
In order to get to what you needed, you spend time and nothing much

 F C G Am C F C 
And the moral is you live and learn
           Am G F C G Am C 
There's a barb in your heart in a world on which we turn
        F C 
And it seems you see what you mean
          Am G F C 
When you say last train and sold and rolling over me
                   Am G 
You don't need to change
               F G 
You just need fire and a little faith


 F C Am G F C G Am C 
In order to get what you want done, you must fight for everyone
 F C Am G 
In order to get to what you needed, you spend time and nothing much


 F C G Am C F C Am G   (X3)
 F C G Am C  (one strum)
 F C Am G F C G Am C  (one strum)

 F C Am G F C G Am C 
In order to get what you want done, you must fight for everyone
 F C Am G 
In order to get to what you needed, you spend time and nothing much

 F C G Am C F C 
And the moral is you live and learn.

Everyone Bleeds Now Tabs by Hatebreed

 Song: Everyone Bleeds Now
 Hatebreed
 The Rise of Brutality
Genre: Hardcore Punk, Metalcore
Tuning: B Tuning (I am tabbing in 7-string but it works on 6-string as well)

0:00
E-------------------------------|--------------------------------|
B-------------------------------|--------------------------------|
G-------------------------------|--------------------------------|
D-play 3x-----------------------|--------------------------------|
A-3---3---2-2---6---6---5-5---5-|3---3---2-2---666---6---5---5---|
E-3---3---2-2---6---6---5-5---5-|3---3---2-2-------7---7---6---6-|
B-1---1---0-0---4---4---3-3---3-|1---1---0-0---------------------|

0:38
E-------------------------------------------------------------|
B-------------------------------------------------------------|
G---------7---6-5---------------------6-7---6-5---------------|
D---------7---6-5-----7---------------6-7---6-5-----7---------|
A-6-5-5-5-5---4-3-----7---6-3-6-2-2-2-4-5---4-3-----7---6-3-6-|
E-6-5-5-5-------------5---6-3-6-2-2-2---------------5---6-3-6-|
B-4-3-3-3-----------------4-1-4-0-0-0-------------------4-1-4-|
                                  . .

0:43
E-----------------------------------------------------------------|
B-----------------------------------------------------------------|
G-4-------4-----------------------4-------4-----------------------|
D-4-------4-----------------------4-------4-----------------------|
A-2-------2---2---3-555---5---6-5-2-------2---2---3-996---5---6-5-|
E-------------2---3-----6---6-----------------2---3-----7---7-----|
B-------------0---1---------------------------0---1---------------|

0:50
E-------------------------------------------------------------|
B-------------------------------------------------------------|
G---------7---6-5---------------------6-7---6-5---------------|
D---------7---6-5-----7---------------6-7---6-5-----7---------|
A-6-5-5-5-5---4-3-----7---6-3-6-2-2-2-4-5---4-3-----7---6-3-6-|
E-6-5-5-5-------------5---6-3-6-2-2-2---------------5---6-3-6-|
B-4-3-3-3-----------------4-1-4-0-0-0-------------------4-1-4-|
                                  . .
0:55
E-------------------------------------------------------------|
B-------------------------------------------------------------|
G-------------------------------------------------------------|
D-------------------------------------------------------------|
A-2~------------------------------------------2-22-2-2-22-2-2-|
E-2~------------------------------------------2-22-2-2-22-2-2-|
B-0~------------------------------------------0-00-0-0-00-0-0-|
                                              . .. . . .. . .

1:07
E-------------------------------|--------------------------------|
B-------------------------------|--------------------------------|
G-------------------------------|--------------------------------|
D-play 3x-----------------------|--------------------------------|
A-3---3---2-2---6---6---5-5---5-|3---3---2-2---666---6---5---5---|
E-3---3---2-2---6---6---5-5---5-|3---3---2-2-------7---7---6---6-|
B-1---1---0-0---4---4---3-3---3-|1---1---0-0---------------------|

1:41
E-------------------------------------------------------------|
B-------------------------------------------------------------|
G---------7---6-5---------------------6-7---6-5---------------|
D---------7---6-5-----7---------------6-7---6-5-----7---------|
A-6-5-5-5-5---4-3-----7---6-3-6-2-2-2-4-5---4-3-----7---6-3-6-|
E-6-5-5-5-------------5---6-3-6-2-2-2---------------5---6-3-6-|
B-4-3-3-3-----------------4-1-4-0-0-0-------------------4-1-4-|
                                  . .

1:47
E-----------------------------------------------------------------|
B-----------------------------------------------------------------|
G-4-------4-----------------------4-------4-----------------------|
D-4-------4-----------------------4-------4-----------------------|
A-2-------2---2---3-555---5---6-5-