Tag: far

How Far Ill Go chords by Alessia Cara

How Far I’ll Go (from Disney’s Moana)

by Alessia Cara

[Chords]

C      x32010

F      133211

Dm     xx0231

Am     x02210

G      320001

Fm     133111

Cmaj7  x32000

[Intro]

C F

[Verse 1]

C                                    Dm

I’ve been staring at the edge of the water

                 Am                      F

‘Long as I can remember, never really knowing why

C                             Dm

I wish I could be the perfect daughter

                       Am                         F

But I come back to the water, no matter how hard I try

      Am

Every turn I take, every trail I track

      G

Every path I make, every road leads back

       C

To the place I know, where I can not go

         Fm

Where I long to be

[Chorus 1]

        C                                      G

See the line where the sky meets the sea? It calls me

           Am                F

And no one knows, how far it goes

       C                                    G

If the wind in my sail on the sea stays behind me

             Am         Fm                   

One day I’ll know, if I go there’s just no telling how far I’ll go

[Drop]

C G Am F

[Verse 2]

C                        Dm                           Am

I know, everybody on this island seems so happy on this island

                F

Everything is by design

C                         Dm                       Am

I know, everybody on this island has a role on this island

                       F

So maybe I can roll with mine

      Am

I can lead with pride, I can make us strong

        G

I’ll be satisfied if I play along

        C

But the voice inside sings a different song

        Fm

What is wrong with me?

[Chorus 2]

        C                                      G

See the light as it shines on the sea? It’s blinding

           Am                 F

But no one knows, how deep it goes

       C                                             G

And it seems like it’s calling out to me, so come find me

           Am             F

And let me know, what’s beyond that line, will I cross that line?

*On the last strum, quickly change the capo from

the 4th fret to the 5th fret for the key change.

[Chorus 1]

        C                                      G

See the line where the sky meets the sea? It calls me

           Am                F

And no one knows, how far it goes

       C                                    G

If the wind in my sail on the sea stays behind me

             Am                 Fm                   

One day I’ll know, how far I’ll go

[Outro]

C Cmaj7 (2x)

C

Loro Tabs by The Story So Far V2

 -------------------------------------------------------------------------------
                   Loro - The Story So Far (Pinback Cover)
-------------------------------------------------------------------------------
: violentboy1996
 tomkow96

Tuning: Standard

First Guitar 
e|---------------------------------------------------------------------------|
B|---------------------------------------------------------------------------|
G|---5---5---5---5-----------------------------------------------------------|
D|-------------------8---8---8---8----6---6---6---6---8---8---8---8----------|
A|-6---6---6---6---6---6---6---6----6---6---6---6---6---6---6---6------------|
E|---------------------------------------------------------------------------|

e|---------------------------------------------------------------------------|
B|---------------------------------------------------------------------------|
G|---------------------------------------------------------------------------|
D|---5---5---5---5---5---5---5---5---5---5---5---5---5---5---5---5-----------| (Repeat through entire song)
A|-6---6---6---6---6---6---6---6---6---6---6---6---6---6---6---6-------------|
E|---------------------------------------------------------------------------|

Second Guitar
e|---------------------------------------------------------------------------|
B|---------------------------------------------------------------------------|
G|-----8----8----8----8---8---8---8---8---8---8---8---8---8---8---8---8------|
D|--10---10---10---10---8---8---8---8---6---6---6---6---8---8---8---8--------|
A|---------------------------------------------------------------------------|
E|---------------------------------------------------------------------------|

e|---------------------------------------------------------------------------|
B|-8---8---8---8h9-8----------------8---8---8---8h9-8------------------------|
G|---8---8---8-------8----8---8---8---8---8---8-------8---8---8---8--------- |
D|----------------------8---8---8-----------------------8---8---8------------|
A|---------------------------------------------------------------------------|
E|---------------------------------------------------------------------------|

 ear, hope this helps. 



************************************
| h   hammer-on
************************************

Bad Luck Tabs – The Story So Far

 -------------------------------------------------------------------------------
                             Bad Luck - The Story So Far
-------------------------------------------------------------------------------
First tab, let me know how it is.
This is only the rhythm guitar, I don't know the lead. If you want that you can look at 
poppunkguitarcovers on youtube, he tabs all his covers and puts links to them in the descriptions. His tab
helped me with correcting and the parts I couldn't quite figure out(strumming of the bridge), so props to 
him.

TUNING: Half-Step Down     / - slide
                           • - palm mute


Intro:
e|---------------------------------------------------------------------------|
B|---------------------------------------------------------------------------|
G|-------------------2-2-----------------------------------------------------|
D|-5-5---5-5---2-2---2-2-----------------------------------------------------|(x3)
A|-5-5---5-5---2-2---0-0-----------------------------------------------------|
E|-3-3---3-3---0-0-----------------------------------------------------------|

e|---------------------------------------------------------------------------|
B|---------------------------------------------------------------------------|
G|---------------------------------------------------------------------------|
D|-5-5---5-5---2-2---55555---------------------------------------------------|
A|-5-5---5-5---2-2---55555---------------------------------------------------|
E|-3-3---3-3---0-0---33333---------------------------------------------------|
                      • •
Verse 1:
e|---------------------------------------------------------------------------|
B|---------------------------------------------------------------------------|
G|---------------------------------------------------------------------------|
D|-5-5-5-5-5-5-5-5-5-5-5-5-5-5-5-5-5-5-5-5-5-7-7-7---------------------------|(x4)
A|-5-5-5-5-5-5-5-5-5-5-5-5-5-5-5-5-5-5-5-5-5-7-7-7---------------------------|
E|-3-3-3-3-3-3-3-3-3-3-3-3-3-3-3-3-3-3-3-3-3-5-5-5---------------------------|
         • • •       • • •       • • •
e|---------------------------------------------------------------------------|
B|---------------------------------------------------------------------------|
G|---------------------------------------------------------------------------|
D|-4-------4-----------------------------------------------------------------|
A|-2-------1-------4-------7-------------------------------------------------|
E|-----------------2-------5-------------------------------------------------|

Chorus:
e|---------------------------------------------------------------------------|
B|---------------------------------------------------------------------------|
G|---------------------------------------------------------------------------|
D|-5-5-5-5-5-5-5-5-7-7-7-7-7-7-7-7-------------------------------------------|
A|-5-5-5-5-5-5-5-5-5-5-5-5-5-5-5-5-------------------------------------------|
E|-3-3-3-3-3-3-3-3-3-3-3-3-3-3-3-3-------------------------------------------|
                   (if you can't reach the seventh fret and stay on the
                    third fret then you can play D|-7-| it still sounds good)
                                                 A|-7-|
                                                 E|-5-|
e|---------------------------------------------------------------------------|
B|---------------------------------------------------------------------------|
G|---------------------------------------------------------------------------|
D|-4-4-4-4-4-4-4-4-----------------------------------------------------------|
A|-2-2-2-2-1-1-1-1-4-4-4-4-7-7-7-7-------------------------------------------|
E|-----------------2-2-2-2-5-5-5-5-------------------------------------------|

e|---------------------------------------------------------------------------|
B|-----------------------------------------

Far From Any Road chords – The Handsome Family

 The Handsome Family - "Far From Any Road" from their album "Singing bones" (2003)

Also the official theme song of HBO series "True Detective"



 Am E Dm Am 
From the dusty May sun her looming shadow grows

 Am E Dm Am 
Hidden in the branches of the poison creosote

 C 
She twines her spines up slowly
   G 
Towards the boiling sun
     Dm  
And when I touched her skin
    F 
My fingers ran with blood



 Am E Dm Am 
In the hushing dusk under a swollen silver moon
 Am E Dm Am 
I came walking with the wind to watch the cactus bloom

     C G 
And strange hands halted me, the looming shadows danced
   Dm F 
I fell down to the thorny brush and felt the trembling hands



 Am E 
When the last light warms the rocks
         Dm Am 
And the rattlesnakes unfold
 Am E Dm Am 
Mountain cats will come to drag away your bones

     C 
And rise with me forever
  G 
Across the silent sand
         Dm 
And the stars will be your eyes
         F 
And the wind will be my hands

Hope Is So Far Away chords – Eyeshine

 Eyeshine - Hope Is So Far Away

Standard Tuning

    B C D Em 
e|-2---0---2---0-|
B|-4---1---3---0-|
G|-4---0---2---0-|
D|-4---2---0---2-|
A|-2---3---x---2-|
E|-x---0---x---0-|

Intro:
 Em D C B Em D  
 Memories that fade
 C B  
 Colors that run
 Em D C B  
 Shadows that fall upon us all
   Em D 
 Imagine no more war
               C B 
 Something we all crave for


  Em D C B 
 Hope, hope is so far away
                Em D C B 
 Yet with each passing day, we want it so much more
        Em D 
 I can scream but will anyone listen?
        C B   
 I can run but is anyone coming?
          Em D     
 Hope is close but it's still so distant
              C B 
 It's in our hands just to make it happen


 Em D 
 Trials that come
 C B  
 No one has won
 Em D C B 
 Burdens that crawl upon us all
          Em D 
 Get yourself off of the floor
               C B     
 Something we all crave for


  Em D C B 
 Hope, hope is so far away
                Em D C B 
 Yet with each passing day, we want it so much more
 Em D C B  
 This is all that I can take
              Em D 
 'Cause I am falling from nothing
       C B 
 I am falling from nothing
 Em D 
 Bend more and I'll break
     C B 
 In two, in two


        Em D 
 I can scream but will anyone listen?
        C B   
 I can run but is anyone coming?
          Em D     
 Hope is close but it's still so distant
              C B 
 It's in our hands just to make it happen


        Em D 
 I can scream but will anyone listen?
        C B   
 I can run but is anyone coming?
          Em D     
 Hope is close but it's still so distant
              C B 
 It's in our hands just to make it happen


        Em D 
 I can scream but will anyone listen?
        C B   
 I can run but is anyone coming?
          Em D     
 Hope is close but it's still so distant
              C B 
 It's in our hands just to make it happen


Enjoy!
-Sace97

Far From Any Road True Detective Theme chords – The Handsome Family

 The Handsome Family- Far From Any Road


You may know this as the theme song from the excellent new HBO show "True Detective" 
starring Woody Harrelson and ol' Matt McConaughey.

---

Intro:  Am Am E 
From the dusty May sun
 Dm Am 
Her looming shadow grows
 Am E 
Hidden in the branches
 Dm Am 
of the poison creosote

          C 
She twines her spines up slowly
     G 
Towards the boiling sun
      Dm 
And when I touched her skin
       F Am 
My fingers ran with blood

  Am E 
In the hushing dusk
           Dm Am 
Under a swollen silver moon
     Am E 
I came walking with the wind
     Dm Am 
To watch the cactus bloom

        C 
And strange hands halted me,
        G 
The looming shadows danced
     Dm 
I fell down to the thorny brush
      F Am 
And felt the trembling hands

   Am E 
When the last light warms the rocks
           Dm Am 
And the rattlesnakes unfold
   Am E 
Mountain cats will come
     Dm Am 
to drag away your bones

       C 
And rise with me forever
    G 
Across the silent sand
          Dm 
And the stars will be your eyes
          F Am 
And the wind will be my hands

Seas Too Far To Reach chords – Ok Kid

 Okkervil River
Seas too far to reach

Standard tuning
submited by: ja

Verse:
     C F 
The ladies in my dream are so obliging.
      G F                CG
They come on down to do the things I need.
        C F 
Whether skies are calm or cut apart by lightning,
          G F C 
theyre always there to minister to me.


Prechorus:
 Am               ( F )
And at break of dawn
                  C 
theyre sweetly shining,
 Am F G 
and at quiet of midnight, cold and dim,
                          F 
they say don’t harm him.
               G 
And when I wake
                                CG
just as their eyes are crying,
             Am 
I see that bed
                              G 
and I just want to climb back in.


Chorus: 
          Am F 
But lets gather up your friends
              C G 
and drive up to that country inn.
         Am F 
We can stay there, feeling water
        C G 
warmly wash across our skin,
             F G 
giving back all of our tears
                 C 
so that we can cry them again.

 G Am G Am ... (?)

Verse:
You want to tell your dad you cant believe hes dying,
but lets just walk on down the hall and shut our mouths.
The AM radio is broken down and crying
as on this hour drive were silent to ourselves.

Prechorus:
Lets go back up to your house,
And take our clothes off,
and just push and pull ourselves
until were deep inside of sleep.
And with your body next to me,
its sleepy sighing
sounds like waves upon a sea
too far to reach.

Chorus:
But Ill gather up my men
and try to sail on it again,
and well walk and quietly talk
all through the country of your skin,
made up of pieces of the places
that youve dreamed
and that youve been.
We will sleep outside in tents
upon this unfamiliar land,
and in the morning
well awake,
as a foreign dawning breaks,
my men and I
we will awake
lets try again.

So Far Tabs by Eminem

 -------------------------------------------------------------------------------
                        SO FAR.. - EMINEM
-------------------------------------------------------------------------------
: linkme620
 linkme620

Tuning: standard

not that complicated, most of it from Joe Walsh's "Life's Been Good", and one part from
"The Real Slim Shady"

INTRO:
E--------------|
B--------------|
G--------------|
D------0-2-3---|
A---3----------|
E--------------|

Strum Dm only once every other time and than quickly switch to C (on 'sleep on the
couch' and 'gasket just blew')

F         C            Dm         C
I own a mansion, but live in a house
F         C                Dm C
A king-size bed, but I sleep on the couch
F         C            Dm         C
I'm Mr.Brightside, glass is half full
F         C               Dm  C
But my tank is half empty, gasket just blew

play this during the verse;


E---------------------------------------------------|
B---------------------------------------------------|
G--------------------2----------------2---2-2-------|
D--------------------2--------2-----------2-2-------|
A--2b3-3r2-0--2/4------0-2/4-----4--------0-0-------|
E---------------------------------------------------|


E---------------------------------------------------------|
B--------------------------------------3-3-3--------------|
G---------------------2----------------2-2-2---2-2-2------|
D---------------------2--------2----0--0-0-0---2-2-2------|
A--2b3-3r2-0--2/4-------0-2/4----4-------------0-0-0------|
E---------------------------------------------------------|


Verse 1:
This always happens
30 minutes from home, gotta lay a log cabin, only option I have's McDonalds's bathroom
In a public stall dropping a football, so every time someone walks in the john I get maddene
"Shady, what up?" What? Come on, man, I'm crappin'
And you're asking me for my goddamn autograph on a napkin?
Oh that's odd, I just happened
To run out of tissue, yeah, hand me that, on second thought I'd be glad then
"Thanks dawg, name's Todd, a big fan"
I wiped my ass with it, crumbled it up in a wad and threw it back and
Told him "Todd, you're the shit"; when's all of this crap end?
Can't pump my gas without causing an accident
Puff my gas, cut my grass, can't take out the fucking trash
Without someone passing through my sub harassing
I'd count my blessings, but I suck at math
I'd rather wallow than bask suffering succotash, but the ant-
Acid, it gives my stomach gas
When I mix my corn with my fucking mashed
Potatoes, so what, ho kiss my country bumpkin ass
Missouri Southern roots, what the fuck is upper class
Call lunch dinner, call dinner supper, Tupperware in the cupboard, plastic ware up the ass
Stuck in the past, iPod, what the fuck is that
B-Boy to the core, mule, I'm a stubborn ass

Hook:


E---5-5-5---3-3-3--1-1----5-5-5---3-3-3--1-1-|
B---6-6-6---5-5-5--1-1----6-6-6---5-5-5--1-1-|
G---5-5-5---5-5-5--2-2----5-5-5---5-5-5--2-2-|
D--------------------------------------------|
A--------------------------------------------|
E--------------------------------------------|

Maybe that's why I feel so strange
Got it all, but I still won't change


NOW choose; play Am or;

E--5-5-5---3-3-3--0-0-0-0------5-5-5---3-3-3--0-0-0-0----|
B--5-5-5---3-3-3--1-1-0-0h1----5-5-5---3-3-3--1-1-0-0h1--|
G--5-5-5---4-4-4--2-2-0-0h2----5-5-5---4-4-4--2-2-0-0h2--|
D--------------------------------------------------------|
A--------------------------------------------------------|
E--------------------------------------------------------|

Maybe that's why I can't leave Detroit
It's the motivation that keeps me going

*ONLY ONCE

E---5-5-5---3-3-3--1-1--|
B---6-6-6---5-5-5--1-1--|
G---5-5-5---5-5-5--2-2--|
D-----------------------|
A-----------------------|
E-----------------------|

This is the inspiration I need
I can never turn m

So Far Away chords – Ink Realm

 Ink Realm
So Far Away
(Capo 3)

Lyrics are below. Listen to the recording on www.soundcloud.com/ink-realm for the rhythms. 

The odd chord shapes:

 A7sus2  57x007          
EmAdd9 02x002
 Gadd9   35x005
 G11/F   13x003

Intro Verses

 Em ,  Em ,  C ,  Am 

Bass Riff (no capo)

G-----------------------------------------------------------|
D---------------------------------------8-7-5---------------|
A--------------------------6--6-6-6-6-6-------3-3-3-3-1-1-1-|
E-3--3--1--3-3-3-3-3-1-1-1----------------------------------|

Chorus

 G ,  D ,  Am ,  C 

Bridge

 A7sus2 , EmAdd9,  Gadd9 ,  G11/F 

Lyrics:

The shadows on the street
form miles above me
i'm far from home...

now i'm worlds away
unfamiliar skies, foreign passers by
seems everything i love is so far away

as days go by
i just try and pass the time
i'm far from home
but with you i'm not alone

now i'm worlds away
unfamiliar skies, foreign passers by
seems everything i love is so far away

now i'm worlds from home
from atlantic skies, friends to pass on by
seems everything i love is so far away
there doesn't pass a day
where i don't long to see the ocean

in three full moons from now
we'll head out of this town
it's familiarity
was right here next to me

now i'm worlds away
unfamiliar skies, foreign passers by
seems everything i love is so far away

now i'm worlds from home
from atlantic skies, friends to pass on by
seems everything i love is so far away
there doesn't pass a day
where i don't long to see the ocean

Vi Far Vingar chords – Thomas Di Leva

 Please rate/comment/correct. =)

Capo on 2nd fret.


Intro: |  D D D G  |  D D D D  | (X4)

  D   
Känn mitt vilda ljus, din blommas rus.
                      G                                        |  D D D G  |  D  |
Från vår himmelska brand når själen land, för att föda våran morgon.
  D   
Vi är allt som är för evigt kär.
                       G                                        |  D D D G  |
Till vår stjärnklara natt vi ger vår skatt. Vi ska komma genom alla.

 D Em G D 
  Vi får vingar när vi älskar.   Vi får vingar när vi älskar med varann.
                       Em G D 
  Vi får vingar när vi älskar.   Vi får vingar när vi älskar med varann.
              D  |  G  |  D  |  G  |  Em  |  G  |  D D D G  |  D  |
  I nöd och lust.

  D   
Känn ett brustet frö. Får inte dö.
                       G                                      |  D D D G  |  D  |
Vi kan läka det med lyckan i vårt skratt, vi är överallt tillsammans.
  D   
Fria violett, ett helt nytt sätt.
                   G                                         |  D D D G  | 
I din hjärtfulla ton finns regnbågsbron. Vi ska komma genom alla.

 D Em G D 
  Vi får vingar när vi älskar.   Vi får vingar när vi älskar med varann.
                       Em G D 
  Vi får vingar när vi älskar.   Vi får vingar när vi älskar med varann.
              D   |  G  |
  I nöd och lust.

  D G D G              |  A# A# A# C  |  A# A# A# C  |
Rid som en delfin i våran rymd, vi kysser bort all synd.
  D G D G            |  A#  |  C  |  D  |
Rid som en delfin min lilla vän, ja rid oss ända he-e-e-e-e-em.

 D Em G D 
  Vi får vingar när vi älskar.   Vi får vingar när vi älskar med varann.
 D Em G D 
  Vi får vingar när vi älskar.   Vi får vingar när vi älskar med varann.
 D Em G D 
  Vi får vingar när vi älskar.   Vi får vingar när vi älskar med varann.
 D Em G D 
                  Å-hå-hå-åå... (To Fade)

END

May chords – The Story So Far

 Am C F  
|-X----X-----X-|
|-X----X-----X-|
|-X----X-----X-|
|-X----X-----X-|
|-3----3-----3-|
|-5----0-----1-|


[ Am  x6,  C  x2,  F  x8] x2


 Am C F 
Might as well pack up all your stuff and move into my head
 Am C F 
I wish I could dispose of all these thoughts and just be numb instead
 Am C F 
I wish you'd stop running from your problems and run to me instead
 Am C F 
Black and blue, eyes bloodshot red while she's passed out out in her bed


 Am C F 
        This song is for William
 Am C F 
        This song is for William


 Am C F 
Maybe I can make you change your decision by using all the ink in this pen
 Am C F 
Maybe I can make you change your decision by using all the ink in this pen
 Am C F 
Maybe I can change you

How Far This Can Go Tabs by Bowling For Soup

 -----------------------------------------------------------------------------
             How Far This Can Go - Bowling For Soup
-----------------------------------------------------------------------------
: Fabio-BlenderBR
 - Please rate and send me your feedback -

- Intro : 
e|---------------------------------------------|
B|---------------------------------------------|
G|-99999-8888-44444----------------------------|
D|-99999-9999-44444--77777-99999---------------|
A|-77777-6666-22222--77777-99999---------------|
E|-------------------55555-77777---------------|


 - Verse :
(It’s cold outside, light a fire..)
e|-----------------------------------------------|
B|-----------------------------------------------|
G|-9999999-8888-44444----------------------------|
D|-9999999-9999-44444--77777-99999---------------|
A|-7777777-6666-22222--77777-99999---------------|  2x
E|---------------------55555-77777---------------|

 - Pre Chorus :
(So hold on and be strong...)
e|-----------------------------------------------|
B|-----------------------------------------------|
G|-------44444-66666----------------44444--------|
D|-44444-44444-66666-77777-66-44444-44444--------|
A|-44444-22222-44444-77777-66-44444-22222--------|
E|-22222-------------55555-44-22222--------------|

 - Chorus : 
(Let’s take it fast to slow...)
e|-----------------------------|
B|-----------------------------|
G|-9999999-8888----------------|
D|-9999999-9999-7777-----------|
A|-7777777-6666-7777-----------|  2x
E|--------------5555-----------|

(If we’re never stop believing, it’s gonna be alright...)
e|----------------------------------|
B|----------------------------------|
G|-66666----------------4-----------|
D|-66666-44444-66-77777-4-----------|
A|-44444-44444-66-77777-2-----------|
E|-------22222-44-55555-------------|

 - Intro :
Guitar 1
e|---------------|
B|---------------|
G|-99999-8888----|
D|-99999-9999----|
A|-77777-6666----|
E|---------------|

Guitar 2
e|------------------------|
B|------------------------|
G|-9999--11-12--11-9------|
D|-xxxx--x--x---x--x------|
A|-7777--9--11--9--7------|
E|------------------------|

 - Verse 2 :
(Start the car, hit the gas...)
e|-----------------------------------------------|
B|-----------------------------------------------|
G|-9999999-8888-44444----------------------------|
D|-9999999-9999-44444--77777-99999---------------|
A|-7777777-6666-22222--77777-99999---------------|  2x
E|---------------------55555-77777---------------|

 - Pre Chorus :
(So hold on and be strong...)
e|-----------------------------------------------|
B|-----------------------------------------------|
G|-------44444-66666----------------44444--------|
D|-44444-44444-66666-77777-66-44444-44444--------|
A|-44444-22222-44444-77777-66-44444-22222--------|
E|-22222-------------55555-44-22222--------------|

 - Chorus : 
(Let’s take it fast to slow...)
e|-----------------------------|
B|-----------------------------|
G|-9999999-8888----------------|
D|-9999999-9999-7777-----------|
A|-7777777-6666-7777-----------|  2x
E|--------------5555-----------|


(If we’re never stop believing, it’s gonna be alright...)
e|----------------------------------|
B|----------------------------------|
G|-66666----------------44444-------|
D|-66666-44444-66-77777-44444-------|
A|-44444-44444-66-77777-22222-------|
E|-------22222-44-55555-------------|

 - Bridge :
(By the time the curtain's falling...)
e|-------------------------------------------------------|
B|-------------------------------------------------------|
G|-------99999-66666----------------99999-77777-44444----|
D|-77777-99999-66666-44444-66-77777-99999-77777-44444----|
A|-77777-77777-44444-44444-66-77777-77777-55555-22222----|
E|-55555-------------22222-44-55555----------------------|

 - Solo :
Guitar 1
e|-----------------7~------------------------------------|
B|-

How Far This Can Go chords – Bowling For Soup

 -----------------------------------------------------------------------------
             How Far This Can Go - Bowling For Soup
-----------------------------------------------------------------------------
: Fabio-BlenderBR
 - Please rate and send me your feedback -

All the chords are very basic, i'm just gonna tab these two :
  B/D# E 
e|---|       e|---|
B|---|       B|---|
G|-8-|       G|-9-|
D|-9-|       D|-9-|  sounds better this way.
A|-6-|       A|-7-|
E|---|       E|---|

Intro :  E  -  B/D#  -  B  -  A  -  B E                     
It’s cold outside, light a fire
 B/D# B A                  
Throw our past mistakes into the flame
                    B 
We can watch them burn
 E                               
Lay down your head, close your eyes
 B/D# B A 
Tomorrow’s gonna be a brand new day
                   B 
and the tide is gonna turn

 F# B 
So hold on and be strong
 C# A         ( G# )
Nothing’s ever gonna bring us down
 F# B 
It’s not too late to turn this thing around

           E              
Let’s take it fast to slow
            B/D# A 
Hold our breaths and jump into whatever this is
 E B/D# A 
Grab a coat and let it all rain down
 C# F#                      ( G# )
If we’re never stop believing, it’s gonna be alright
 A B 
But if we don’t try, we may never know
How far this can go

 E  -  B/D# E                       
Start the car, hit the gas
 B/D# B A 
Drive forever never looking back
             B 
Leave the world behind
 E              
Fly so high, touch the sun
 B/D# B A 
Hurry up, you know life goes so fast
                B 
We’re running out of time

 F# B 
So hold on and be strong
 C# A         ( G# )
Nothing’s ever gonna bring us down
 F# B 
It’s not too late to turn this thing around

           E              
Let’s take it fast to slow
            B/D# A 
Hold our breaths and jump into whatever this is
 E B/D# A 
Grab a coat and let it all rain down
 C# F#                      ( G# )
If we’re never stop believing, it’s gonna be alright
 A B 
But if we don’t try, we may never know
How far this can go

  A E              
By the time the curtain's falling 
               C# F#      ( G# )
There'll be standing under and screaming out our names
 A E 
Can’t you hear the future calling
 D B 
Will go all the way and never be the same, yeah

Solo :  E  -  B/D#  -  B  -  A  -  B F# B 
So hold on and be strong
 C# A         ( G# )
Nothing’s ever gonna bring us down
 F# B 
It’s not too late to turn this thing around

           E              
Let’s take it fast to slow
            B/D# A 
Hold our breaths and jump into whatever this is
 E B/D# A 
Grab a coat and let it all rain down
 C# F#</s

A Far Shore chords – Skyway Flyer

 A Far Shore acoustic - Jason Munday
album version is no capo, but when playing live jason uses capo 5

INTRO
 A2 E B 

VERSE 1
 A2 E B 
   My only hope of reaching you

is sending this report
 A2 E B 
   I wish that I could hear you now

this is my last resort

PRECHORUS
 A2 E B 
  Dont count  me out
        C#m 
all gauges warn danger
 A2 E B 
  I wont bail out

CHORUS
      A2 E 
As I jump to warpspeed
         B C#m 
I throw everything I knew out the door
          A2 E 
brace my heart as I proceed
          B C#m 
where no man has ever been before
           A2 
Theres no other way around it
 E 
completely surrounded
 B C#m 
strings play the final score
      A2 E 
As I jump to warpseed
      B     N. C .        A2 E 
destination a far shore
           B 
a far shore

VERSE 2
 A2 E B 
  If I could turn back you know I would

believe me I have tried
 A2 E B 
  Id trade the greatest discovery

to look into your eyes

Repeat PRECHORUS and CHORUS

BRIDGE/SOLO
 C#m A2 E B    x2

E-------------9----------------------------------------|
B-9-9----9-12---12-9-----------------12-11-------------|
G-----11-------------11/9-11-11-9-11-------------------|
D------------------------------------------------------|
A------------------------------------------------------|
E------------------------------------------------------|


E-------------9---------------------------------9------|
B-9-9----9-12---12-9-----------------12-9-11-12---/12--|
G-----11-------------11/9-11-11-9-11-------------------|
D------------------------------------------------------|
A------------------------------------------------------|
E------------------------------------------------------|


chords:
 A2       002200
 E        022100
 B        024400
 C#m      046600
N.C.    NO CHORD

How Far You Go Acoustic chords – Tim Christensen

 My first ever tab, made for everyone as fresh and dandy in the world of guitar shredding 
as myself. In addition this is totally "stolen" from another guitar-tab-website, so 
apologies on all accounts for the simplicity and lack on work on my behalf.
BUT I really love this song and wanted to play it, so here it goes.
Hope you guys have fun :D


Capo on 4th


 G D 
Something sweet
 G D 
Everytime we meet
 G Em Am 
There's no doubt about it
    Riff1     D 
But I wish I knew
     Riff2            B7 
What I'm supposed to do
           Cadd9 
With you Sirene


        G D 
'Cause you pretend
        G D 
to be more than a friend
  G Em Am 
this is the sweetest feeling
      Riff1        D 
But I don't understand
          Riff2       B7 
If it's a part of a plan
        Cadd9 
To be lying
        D 
to me Sirene


       G 
Still tonight I've falled for
      Am 
The stars in your eyes
 F D 
I apologize
     G D 
But I want you to know
         G 
That my heart is broken
    Am 
My high is low
 F D Gsus4 G 
That's how far you go


 G D 
I can see
             G D 
what you're doing to me
     G Em Am 
But I don't know the answer
      Riff1          D 
And I just couldn't take
     Riff2        B7 Cadd9 
If I make the mistake of not trying


     G D 
But easy come
     G D 
And easy go
     G Em Am 
And I don't wanna cry about it
         Riff1         D 
Now that I've got it clear
     Riff2       B7 
That you only appear
       Cadd7
To be lying
        D 
To me Sirene


      G 
But, tonight I've falled for
     Am 
The stars in your eyes
 F D 
I apologize
       G D 
But I want you to know
         G 
That my heart is broken
    Am 
My high is low
 F D Gsus4 G 
That's how far you go

(modulates 2 semitones up)

 A 
Ohh
 Bm 
Ohh
 G E 
I apologize
        A E 
But I want you to know
          A 
That my heart is broken
     Bm 
My high is low
 G E Asus4 A 
That's how far you go