Tag: fight

Fight With The Beast Tabs – Onslaught

 Intro
Fig 1 x 5
|-|--------------------------------|-|
|-|--------------p-----------------|-|
|o|2-2-2---2--3-20-2-2-2---5--5--5-|o|
|o|2-2-2---2--3-20-2-2-2---5--5--5-|o|
|-|------0---------------0---------|-|
|-|--------------------------------|-|
         .               .

whammy bar dive

Fig 2 x 4
|-|--------------------------------|-|
|-|--------------------------------|-|
|o|--------------------------------|o|
|o|------------------------5--5--5-|o|
|-|0000000000000000000000003--3--3-|-|
|-|--------------------------------|-|
   ........................

Fig 3a x 1
|-|----------------------------------------------------------------|-|
|-|----------------------------------------------------------------|-|
|o|----------------------------------------------------------------|o|
|o|777777777777777777777777777777777777777777777777----------------|o|
|-|555555555555555555555555555555555555555555555555X\\\\\\\\\\\\\\\|-|
|-|----------------------------------------------------------------|-|

Fig 2 x 2
|-|--------------------------------|-|
|-|--------------------------------|-|
|o|--------------------------------|o|
|o|------------------------5--5--5-|o|
|-|0000000000000000000000003--3--3-|-|
|-|--------------------------------|-|
   ........................

Fig 3b x 1
|-|----------------------------------------------------------------|-|
|-|----------------------------------------------------------------|-|
|o|----------------------------------------------------------------|o|
|o|7777777777777777777777777777777777777777777777775--5--5-4--4--4-|o|
|-|5555555555555555555555555555555555555555555555553--3--3-2--2--2-|-|
|-|----------------------------------------------------------------|-|

Fig 2 x 2
|-|--------------------------------|-|
|-|--------------------------------|-|
|o|--------------------------------|o|
|o|------------------------5--5--5-|o|
|-|0000000000000000000000003--3--3-|-|
|-|--------------------------------|-|
   ........................

Fig 4 x 1
|-|----------------------------------------------------------------|-|
|-|----------------------------------------------------------------|-|
|o|----------------------------------------------------------------|o|
|o|----------------------------------------------------------------|o|
|-|5555555555555555555555555555555555555555555555555555555555555555|-|
|-|3333333333333333333333333333333333333333333333333333333333333333|-|

Fig 2 x 2
|-|--------------------------------|-|
|-|--------------------------------|-|
|o|--------------------------------|o|
|o|------------------------5--5--5-|o|
|-|0000000000000000000000003--3--3-|-|
|-|--------------------------------|-|
   ........................

Fig 5 x 1
|-|----------------------------------------------------------------|-|
|-|----------------------------------------------------------------|-|
|o|----------------------------------------------------------------|o|
|o|5555555555555555777777777777777733333333333333335555555555555555|o|
|-|3333333333333333555555555555555511111111111111113333333333333333|-|
|-|----------------------------------------------------------------|-|

Fig 1 x 2
|-|--------------------------------|-|
|-|--------------p-----------------|-|
|o|2-2-2---2--3-20-2-2-2---5--5--5-|o|
|o|2-2-2---2--3-20-2-2-2---5--5--5-|o|
|-|------0---------------0---------|-|
|-|--------------------------------|-|
         .               .

Fig 1c x 1
|-|----------------------------------------------------------------|-|
|-|----------------------------------------------------------------|-|
|o|----------------------------------------------------------------|o|
|o|777777777777777777777777777777775--5--5-5--5--5-5---------------|o|
|-|555555555555555555555555555555553--3--3-3--3--3-3---------------|-|
|-|----------------------------------------------------------------|-|
                                                   *

Fig 2 x 4
|-|--------------------------------|-|
|-|--------------------------------|-|
|o|-

Fight Fiercely Harvard chords – Tom Lehrer

 Fight Fiercely, Harvard!
by Tom Lehrer

 D7 G    
Fight fiercely, harvard,
 C 
Fight, fight, fight!
 A7 D7 G D7 
Demonstrate to them our skill.
    G C E7+ 
Al-beit they possess the might,
 A9 Eb7 D7 
Nonetheless we have the will.
     C6 B7 Em 
How we shall celebrate our victory,
     Em7 A7 D7 
We shall invite the whole team up for tea (how jolly!)
 G C E7+ E7 
Hurl that spheroid down the field, and
 A9 D7 G 
Fight, fight, fight!

 D7 G   
Fight fiercely, harvard,
 C 
Fight, fight, fight!
   A7 D7 G 
Impress them with our prowess, do!
     D7 G C E7+ 
Oh, fellows, do not let the crimson down,
 A9 Eb7 D7 
Be of stout heart and thru.
      C6 B7 Em 
Come on, chaps, fight for harvard's glorious name,
       Em7 A7 D7 
Won't it be peachy if we win the game?(oh, goody!)
 G C E7+ E7 
Let's try not to injure them, but
 A9 D7 G 
Fight, fight, fight! (spoken)Let's not be rough though!
 A9 D7 G 
Fight, fight, fight! (spoken)And do fight fiercely!
 A9 D7 G D7 G 
Fight, fight, fight!

Love Is Not A Fight Tabs – Warren Barfield V2

 -------------------------------------------------------------------------------
                             Love Is Not A Fight - Warren Barfield
-------------------------------------------------------------------------------
: Jonathan Lastra
 jklastrabro@hotmail.com

Tuning:Standard/Capo 5th fret

|0| |0| |4| |x|
|2| |0| |5| |x|
|2| |1| |6| |4|
|2| |2| |6| |4|
|0| |2| |4| |2|
|x| |0| |0| |x|
 A   E  C#m  B
It's easiest to bar the 4th fret and lift off your pinky and ring fingers for
the second note to let the A string continue to ring.

Pick each string at the same time. No strumming until the chorus.
All you have to do is bar the 4th fret and hold that bar while you slide to the second
fret, continue to hold
the bar letting the B and A strings ring and use your pinky to hit the single note on
the 4th fret of the G string.
\-slide
()-let ring
Most of the notes don't line up with the lyrics. Lyrics that start with a capital letter
is where the note is played.

INTRO:
e|---------------------------------------------------------------------------|
B|-5---4-\-2---(2)---------5---4-\-2---(2)-----------------------------------|
G|-6---4-\-2----4---1------6---4-\-2----4---1--------------------------------|
D|------------------2-----------------------2--------------------------------|
A|-4--(4)\(2)--(2)---------4--(4)\(2)--(2)-----------------------------------|
E|------------------0-----------------------0--------------------------------|

Verse 1:
e|---------------------------------------------------------------------------|
B|-5---4-\-2---(2)------------5---4-\-2---(2)--------------------------------|
G|-6---4-\-2----4---1---------6---4-\-2----4-----1---------------------------|
D|------------------2----------------------------2---------------------------|
A|-4--(4)\(2)--(2)------------4--(4)\(2)--(2)--------------------------------|
E|------------------0----------------------------0---------------------------|
  Love Is Not   A   Place to Come And Go   As we Please

e|---------------------------------------------------------------------------|
B|-----5---4-\-2---(2)------------0-----0---------0--------------------------|
G|-----6---4-\-2----4---1--------2-----2---------2------4--------------------|
D|----------------------2------------------------------4---------------------|
A|-----4--(4)\(2)--(2)----------2-----0---------2----------------------------|
E|----------------------0-----------------------------2----------------------|
it's a House We Enter   In      Then  Commit to Never Leave

e|---------------------------------------------------------------------------|
B|-5---4-\-2---(2)------------5---4-\-2---(2)--------------------------------|
G|-6---4-\-2----4---1---------6---4-\-2----4-----1---------------------------|
D|------------------2----------------------------2---------------------------|
A|-4--(4)\(2)--(2)------------4--(4)\(2)--(2)--------------------------------|
E|------------------0----------------------------0---------------------------|
so Lock The Door behind You and Throw Away The   Key

e|---------------------------------------------------------------------------|
B|-----5---4-\-2---(2)------------0-----0---------0--------------------------|
G|-----6---4-\-2----4---1--------2-----2---------2------4--------------------|
D|----------------------2------------------------------4---------------------|
A|-----4--(4)\(2)--(2)----------2-----0---------2----------------------------|
E|----------------------0-----------------------------2----------------------|
we'll  Work It Out To--Gether  Let it Bring us To our Knees

Chorus: strum section

A         E       C#m         B
Love is a Shelter In a raging Storm.
A         E           C#m          B
Love is a Peace in the Middle of a War.
    A            E                   C#m                 B
and If we try to Leave, may God send Angels to guard the Door.
    A             E              A               B
no, Love is not a Fight, but its Some

Give It Up chords – I Fight Dragons

 I Fight Dragons – Give It Up
use capo on 1st fret

[ A ]                          [ E ]
   You tell yourself that you just can't take this
               [ D ]
Enough with the madness
This has gotta
[ A ]  
  Stop now
[ E ]
  Some how

[ A ]                                    [ E ]
   And every time that you think you're ok
               [ D ]
You get in your own way
But soon enough you're
[ A ]
   Knocked down
[ E ] 
  Surrounded
[ D ]           [ E ]
 By your own denial

[ F#m ]      [ D ]    [ A ]   [ E ]
    Give it up for human nature
[ F#m ]      [ D ]    [ A ]    [ E ]
    Give it up now bit by bit
[ F#m ]      [ D ]    [ A ]      [ E ]
    Give it up for your frustration
[ F#m ]      [ D ]     [ A ]
    Give it up 'cuz kid,
    [ E ]    [ D ]
Your future lies here dying and
       [ E ]                   [ A ]    [ D ]    [ A ]    [ D ]
There's no use crying over it

[ A ]                          [ E ]
   People tell you to do what they say
                 [ D ]
They all want it their way
All that you can do is
[ A ]         [ E ]
   Bite lip, or
Jump ship

[ A ]                                  [ E ]
   So learn to smile at the ones that hate you
              [ D ]
No matter what they do
They will never
[ A ]
 Make it there
 [ E ]
To where you
[ D ]              [ E ]
 Know you will be going

[ F#m ]      [ D ]    [ A ]   [ E ]
    Give it up for human nature
[ F#m ]      [ D ]    [ A ]    [ E ]
    Give it up now bit by bit
[ F#m ]      [ D ]    [ A ]      [ E ]
    Give it up for your frustration
[ F#m ]      [ D ]     [ A ]
    Give it up 'cuz kid,
    [ E ]    [ D ]
Your future lies here dying and
       [ E ]                   [ A ]
There's no use crying over it

Chorded by: Roithy
Email: ruthtan@live.com

Love Alone Is Worth The Fight chords – Switchfoot V3

 "Love Alone is Worth the Fight" by Switchfoot

This is a pretty simple song.  You can play it different ways.  For example, I've seen
Jon use the E and E5 interchangeably, but I like using the E to give certain parts more
emphasis, so you can do it however you want.  I would recommend listening to a radio
performance to get the strumming.  At the bottom I've included a few notes on things you can
add to make it more interesting once you've got this down.  Have fun.

Standard tuning, no capo.

Chords:
 B -  7998xx
 E5 - 079900
 E - 022100
 EM7 - 066440
 F# - 2443xx

Intro:    B E5 B E5 B E EM7 F# E 

Verse 1:
 B 
I’m trying to find where my place is

I’m looking for my own oasis
 E5 
So close I can taste this

The fear that love alone erases
 B 
So I’m back to the basics

I figure it’s time I face this
 E5 
Time to take my own advice
(pause)                  B 
Love alone is worth the fight
                         E5 
Love alone is worth the fight

Verse 2:
 B 
And I never thought it’d come to this

But it seems like I’m finally feeling numb to this
 E5 
The funny thing about a name is

You forget what the reason you were playing the game is
 B 
And it’s all an illusion

A 21st century institution
 E 
So I’m heading down the open road unknown

Chorus:
 B 
And we find what we’re made of
 E5 
Through the open door
 B 
Is it fear you’re afraid of?
 E 
What are you waiting for?
                         B E5 
Love alone is worth the fight
                         B E5 
Love alone is worth the fight

Verse 3:
 B 
We’re only here for a season

I’m looking for the rhyme and reason
 E5 
Why you’re born why you’re leaving

What you fear and what you believe in
 B 
Why you’re living and breathing

Why you’re fighting it and getting it even
 E 
Let’s go headed down the open road unknown

Chorus:
 B 
And we find what we’re made of
 E5 
Through the open door
 B 
Is it fear you’re afraid of?
 E 
What are you waiting for?
                         B E5 
Love alone is worth the fight
                         B E5 
Love alone is worth the fight


Then on the last “yeah” you play this (listen for strumming pattern; I recommend an
acoustic/radio performance):

e-------------------------------------|
B-------------------------------------|
G--11/16-16-15-13—-11/16-16-15-13-----|
D-------------------------------------|
A---9/14-14-13-11---9/14-14-13-11-----|
E-------------------------------------|

Outro:
 B 
Here we are here we go
 E5 
Where the road is our own
 B 
Feel it calling you home
 E 
Here we are here we go
                         B 
Love alone is worth the fight
                         E 
Love alone is worth the fight
                         B 
Love alone is worth the fight
                         E 
Love alone is worth the fight
                         B 
Love alone is worth the fight

 E5 B E5 


Notes:  
There's a few things you can add in if you want to make the song a little more interesting.

-I like to play the B and e strings open for the second half of strumming the F# in the
intro.  I think it sounds more like the song.

-During the verses it sounds like Jon is sort

Get On Your Knees And Fight Like A Man chords – Petra

 Get On Your Knees And Fight Like A Man


[INTRO]  Bm G A D Bm G A 


[VERSE 1]

 Em D G A 
Out on your own with your own self reliance
 Em G A 
You've got no one to watch your back
 D G Bm A 
You find yourself caught with no strong alliance
 Em G Bm A 
You've been left open for attack


[VERSE 2]

 Em D G A 
Over your head the condition is graver
 Em G A 
You've given ground you can't retrieve
 D G Bm A 
The cards are stacked and they're not in your favour
 Em G Bm A 
But you've got an ace up your sleeve


[CHORUS]

 D G Bm A 
Get on your knees and fight like a man
 D G Bm A 
You'll pull down strongholds if you just believe you can
 D G Bm A 
Your enemy will tuck his tail and flee
 D G Bm  -  A  -  G A Bm  -  A  -  G  -  A 
Get on your knees and fight like a man


[VERSE 3]

 Em D G A 
Under the gun, you've got no place to hide 
 Em G A 
Backed in the corner on your own
 D G Bm A 
This is one storm you are destined to ride 
 Em G Bm A 
One way to leave the danger zone


[CHORUS]


[BRIDGE]

 Bm G A 
You've got the backbone to fight this tide
  A Em  -  Bm/F#  -  G  -  Bm/F#  
You've got the will to survive
 Bm G A 
You've got the weapon, it's at your side
 A Em  -  Bm/F#  -  G  -  Bm/F#  -  A 
You've got to learn to confide


[INSTRUMENTAL]   D G Bm A       {repeat}

 D G 
Get on your knees
 Bm A 
Fight like a man



 D G Bm A 
Get on your knees and fight like a man
 D G Bm A 
You'll pull down strongholds if you just believe you can
 D G Bm A 
Your enemy will tuck his tail and flee
 D G Bm  -  A  -  G A Bm  -  A  -  G  -  A 
Get on your knees and fight like a man

[INTRO/OUTRO]

Love Alone Is Worth The Fight chords – Switchfoot V2

 "Love Alone Is Worth The Fight"

Intro:  B E G#m F# E B   
I'm trying to find where my place is
  B 
I'm looking for my own oasis
  E 
So close I can taste this
  E 
The fear that love alone erases 
  B 
So I'm back to the basics
  B 
I figure it's time I face this
  E 
Time to take my own advice 
                           B 
Love alone is worth the fight
                           E                       
Love alone is worth the fight 
  B 
And I never thought it'd come to this
  B 
But it seems like I'm finally feeling numb to this 
  E 
The funny thing about a name is 
  E 
You forget what the reason you were playing the game is 
  B 
And it's all an illusion 
  B 
A 21st century institution 
  E 
So I'm headed down the open road unknown 
  B 
And we find what we're made of 
  E 
Through the open door 
  B 
Is it fear you're afraid of? 
  E 
What are you waiting for? 
                           B E 
Love alone is worth the fight Whoa o o
                           B E     
Love alone is worth the fight Whoa o o
  B 
We're only here for a season 
  B 
I'm looking for the rhyme and reason 
  E 
Why you're born, why you're leaving 
  E 
What you fear and what you believe in 
  B 
Why you're living and breathing 
  B 
Why you're fighting it and getting it even
  E 
Let's go headed down the open road unknown 
  B 
And we find what we're made of 
  E 
Through the open door 
  B 
Is it fear you're afraid of? 
  E 
What are you waiting for? 
                           B E 
Love alone is worth the fight Whoa o o 
                           B E 
Love alone is worth the fight Whoa o o
  E 
Yeah, yeah, yeah 

Solo:  G#m F# E  X2
  B 
Here we are, here we go 
  E 
Where the road is our own 
  B 
Hear it calling you home 
  E 
Here we are, here we go! 
                           B 
Love alone is worth the fight 
                           E 
Love alone is worth the fight 
                           B 
Love alone is worth the fight 
                           E 
Love alone is worth the fight
                           B E B E 
Love alone is worth the fight

Fight For Everyone chords – The Leisure Society

  Sam de Brunner
Tuning: Standard
Capo: 5
Chords relative to capo

Intro
 F C Am G   (X3)
 F C G Am C  (one strum of  C )
 F C Am G F C G Am C  (one strum)

             F C  
When you're saved by the ring of the bell
       Am G F C G Am C 
Is it hard to relax when you're told that you can never fail?
         F C 
Has the spit that you spit from your teeth
      Am G F C 
Been replaced by a taste that has all but lost its novelty
                   Am G 
You don't need to change
               F G 
You just need fire and a little faith


 F C Am G F C G Am C 
In order to get what you want done, you must fight for everyone
 F C Am G 
In order to get to what you needed, you spend time and nothing much

 F C G Am C F C 
And the moral is you live and learn
           Am G F C G Am C 
There's a barb in your heart in a world on which we turn
        F C 
And it seems you see what you mean
          Am G F C 
When you say last train and sold and rolling over me
                   Am G 
You don't need to change
               F G 
You just need fire and a little faith


 F C Am G F C G Am C 
In order to get what you want done, you must fight for everyone
 F C Am G 
In order to get to what you needed, you spend time and nothing much


 F C G Am C F C Am G   (X3)
 F C G Am C  (one strum)
 F C Am G F C G Am C  (one strum)

 F C Am G F C G Am C 
In order to get what you want done, you must fight for everyone
 F C Am G 
In order to get to what you needed, you spend time and nothing much

 F C G Am C F C 
And the moral is you live and learn.

Cant Fight Against The Youth chords – Panic At The Disco

 PANIC! AT THE DISCO
Can't Fight Against The Youth
Standard



Verse 1:
 B F# C# D#min 
Moving forward,  using all my breath,
 B F# C# D#min 
"I'll make it up to you," is all I should have said.
 B F# C# D#min 
Mom and Dad, looked me right between the eyes,
        B F# C# 
Then I awoke, a blinding light.



Chorus:
-                        E 
Can't fight against the youth! (Hey!)
      B F# 
Woah-oh-oh-oh-oh-oh
       D#min C# E 
Can't fight against the youth! (Hey!)
        B F# 
You'll never take us alive! 
       D#min C# E 
Can't fight against the youth! (Hey!)
      B F# 
Woah-oh-oh-oh-oh-oh
                         E 
Can't fight against the youth! (Hey!)
        B F# 
You'll never take us alive! 
-
Can't fight against the youth!


Verse 2:
 B F# C# D#min 
In December, 1995,
 B F# C# D#min       
Though I had the thoughts, no one ever heard them right
 B F# C# D#min 
Fought resistance nearly my entire life,
 B F# C# 
Then I awoke, a blinding light.



PLAY CHORUS


Bridge:
 B C# D#min            
   (Never gonna take us, never gonna break us.)
 B C# D#min 
   (Futures open wide, and the past is all behind us.)
 B C# D#min 
   (Never gonna take us, never gonna break us.)


PLAY CHORUS TWICE!


Pretty sure thats it :P hope it helps

Fight Inside chords – Red

 No capo.  


Verse 1:


 Am C 
 Enemy, familiar friend
 G Dm 
 My beginning and my end
 Am C G                   
 Knowing truth, whispering lies
 E 
 And it hurts again

 Am C G 
 What I fear and what I've tried,                              
             Dm 
Words are saying what I hide
 Am C G 
 All the pain, I want it to end
 E 
 But I want it again

Chorus:



 Am C 
 And it finds me
      F Dm                     
The fight inside is coursing through my veins
 Am C 
 And it's raging
     F Gm 
The fight inside is breaking me again

Verse 2:
 Am C               
 I'm still the same, pursuing pain
 G Dm 
 Is it worth all I have gained?
 Am C G                   
 We both know how it will end,
 E                      
 But I'd do it again

Chorus:


 Am C 
 And it finds me
      F Dm                    
The fight inside is coursing through my veins
 Am C 
 And it's raging
      F Gm 
The fight inside is hurting me again
 Am C 
 And it finds me
        F Dm 
The war within me pulls me under
 Am C 
 And without You
      F Gm 
The fight inside is breaking me again

Like A Ritual Acoustic Tabs by Title Fight

 -------------------------------------------------------------------------------
                             Like a Ritual (acoustic) - Title Fight
-------------------------------------------------------------------------------

This is the version from the Bondi Porch Sessions

This really only has 2 parts in it plus the little outro part.

You can watch the video for the strum pattern.

YouTube Link: http://www.youtube.com/watch?v=rqhZmKdUES0

:chitonyaface
pencilazer

Tuning:EADGBe

He doesn't do 5 7 7 part every time. watch the video for help.

e|-----0----------------------------0-----------0---0---0--------------------|
B|-----0----------------------------0-----------3---3---3p-------------------|
G|-----0---------------------------h2---2p------0---0---0--------------------|
D|-----0---------------10--7----3---3---3-------0---0---0--------------------|
A|-2---2-------0h2p----10--7----3---3---3-------2--h2---2--------------------|
E|-0---0-------0-------8---5----0---0---0-------3---3---3--------------------|

*The second set of chords below are the extra stuff that he does. Play them when needed*

I recommend that you watch the video for the pull off on the high e string if you cant't 
figure it out.

e|-------------------------------------------------3p---------------------------|
B|-1---1-------1---1---1-------1---1-------1---1---1---1---1--------------------|
G|-2---0-------2---2---2-------2---0-------2---2---2---2---0--------------------|
D|-2---0-------3---0---3-------2---0-------3---0-------3---3--------------------|
A|-0---0-------3---0---3-------0---0-------3---0-------3---3--------------------|
E|------------------------------------------------------------------------------|



************************************

| /   slide up
| \   slide down
| h   hammer-on
| p   pull-off
| ~   vibrato
| +   harmonic
| x   Mute note
| b   Bend
| pb  Pre-bend
| br  Bend release
| pbr Pre-bend release
| brb Bend release bend

************************************

Where Am I Acoustic Tabs by Title Fight

 This is the version where Jamie places Safe In Your Skin/Where Am I in the stair well.
Listen to the song for the strum pattern if you need help.

Here is the YouTube link:http://www.youtube.com/watch?v=7XxYYyecU2c
(You'll have to skip forward for Where Am I)

:chitonyaface
pencilazer

Tuning:EADGBe

e|----------0----------------------------------------------------------------|
B|----------0----------------------------------------------------------------|
G|----------4----------------------------------------------------------------|
D|----------0-------------------4---------5---------4------------------------|
A|-2--------2---------0---------0---------0---------0------------------------|
E|-0--------0---------3---------3---------3---------3------------------------|
you do this 2x but the 2nd time insted of the 4,5,4 part you go

e|--0---------0---------0----------------------------------------------------|
B|--0---------0---------0----------------------------------------------------|
G|--0---------0---------0----------------------------------------------------|
D|--0---------0---------0----------------------------------------------------|
A|--7---------9---------5----------------------------------------------------|
E|--5---------7---------3----------------------------------------------------|
He plays that whole part 3x
and he plays the one below 2x

e|-0-------0-------0-------0-------0-------0-------0-------------------------|
B|-0-------0-------0-------0-------0-------0-------0-------------------------|
G|-0-------0-------9-------7-------4-------4-------4-------------------------|
D|-5-------9-------9-------7-------3-------4-------2-------------------------|
A|-5-------9-------7-------5-------3-------2-------0-------------------------|
E|-3-------7-----------------------------------------------------------------|

e|-------------------------0-----------0-----------0-------------------------|
B|-------------------------0-----------0-----------0-------------------------|
G|-------------------------0-----------0-----------5-------------------------|
D|-x5-------x9b------------5-----------9-----------5-------------------------|
A|-x5-------x9b------------5-----------9-----------3-------------------------|
E|-x3-------x7b------------3-----------7-------------------------------------|
He does this 4x but you only do that last chord the first time

*note the part below is A LOT easier if you watch the video. at least for me

e|-0---------0---------0-----------------------------------------------------|
B|-0---------0---------0-----------------------------------------------------|
G|-5---------5---------0-----------------------------------------------------|
D|-5---------5---------5-----------------------------------------------------|
A|-3---------0---------2-----------------------------------------------------|
E|---------------------3-----------------------------------------------------|
*I am not 100% on this part. he does some variations of the pull offs but this is the 
basic one. just try messing around with it to figure it out.*

e|------------------------------------------------------------------------------|
B|-------------------------3p-------0-------------------------------------------|
G|---------0-------0------------------------------------------------------------|
D|--------h2--------------------------------------------------------------------|
A|---------3--------------------------------------------------------------------|
E|---------3--------------------------------------------------------------------|

e|---------------------------------------------------------------------------|
B|---------------4\3-------0-------------------------------------------------|
G|-------0-------------------------------------------------------------------|
D|-0-------------------------------------------------------------------------|
A|-

Lead The Fight On chords – He Is We V2

 Intro:
 Em ,  G ,  Em ,  G   (With piano)

 Em 
You know every part of me
 G 
I know every part of you
 Em 
Tell me a story with an ending that makes me smile
 G 
Tell me you'll stand by me longer than just awhile
 Em 
Your fight is what I'm believing for
 G 
My fight is hand in hand with yours
 Em 
Just a couple of kids who found a voice,
 G 
who found a choice,  We are...


Chorus:

 Em 
We're the ones with the scars and the stripes
 C 
Been here forever too our battle is worth the fight
 G D 
Not the little kids you knew before, We are...
 Em 
Broken hearts with the motive to move the world
 C 
Doesn't matter your past, all my boys and girls
G                                 D (Strum once and let ring)
With the stories tell tied in our hands

Lead the fight on


(Intro chords  + Piano)


Our lives may not be the same
Ourselves found in a single name
A name of hope for those who've lost their way
Just a glance at the moment they'll be okay
Your past makes you so strong
My past shows what I've done wrong
Gotta rise from the ashes and paint this town
Let's paint this town, We are...


(Chorus)


Bridge:
 C D 
I'm fire, I'm pain
 Em D 
Been through hell, been through rain
 C D 
I'm tired, I'm shamed
 Em D 
Can't stop me anyway
 C D 
I'm driven, regardless
 Em D    
I'm lifting the helpless
 C D 
My hands are, in yours now
Em               D         C (Strum once and let ring) 
Lets change this world somehow 
 D Em C G C D 
      We're the ones with the scars and the stripes forever and ever


(Chorus)


Outro:
 Em ,  G ,  Em ,  G ,  Em 


Jessen Shay

Lead The Fight On chords – He Is We

 -------------------------------------------------------------------------
                   Lead The Fight On - He Is We
-------------------------------------------------------------------------

 ***************************************************************
 *     "markchordz" 5 Years in the road(UG)                    *
 * Thanks for supporting my tabs here in Ultimate-guitar.com   *
 *                                                             *
 * Text Me: 09099719466 (Smart)                                *             
 * Text Me: 09099719466 (Smart)                                *
 ***************************************************************

************************************************************************** 
* Read first: Pls Rate, leave some comments and be sure that your        *
* guitar "tune" well before playing this song..                          *
*                                                                        *
*            All Rights Reserved © Copyright 2013                        *
************************************************************************** 

Intro:

 Em ,  G ,  Em ,  G Em 
You know every part of me


 G 
I know every part of you


 Em 
Tell me a story with an ending that makes me smile


 G 
Tell me you'll stand by me longer than just awhile


 Em 
Your fight is what I'm believing for


 G 
My fight is hand in hand with yours


 Em 
Just a couple of kids who found a voice,


 G 
who found a choice,  We are...


Chorus:


 Em 
We're the ones with the scars and the stripes


 C 
Been here forever too our battle is worth the fight


 G D 
Not the little kids you knew before, We are...


 Em 
Broken hearts with the motive to move the world


 C 
Doesn't matter your past, all my boys and girls


G                                 D (Strum once and let ring)
With the stories tell tied in our hands



Lead the fight on


(Intro chords  + Piano)


Our lives may not be the same
Ourselves found in a single name
A name of hope for those who've lost their way
Just a glance at the moment they'll be okay
Your past makes you so strong
My past shows what I've done wrong
Gotta rise from the ashes and paint this town
Let's paint this town, We are...


(Chorus)


Bridge:


 C D 
I'm fire, I'm pain


 Em D 
Been through hell, been through rain


 C D 
I'm tired, I'm shamed


 Em D 
Can't stop me anyway


 C D 
I'm driven, regardless


 Em D    
I'm lifting the helpless


 C D 
My hands are, in yours now


 Em D C  (Strum once and let ring) 
Lets change this world somehow 


 D Em C G C D 
      We're the ones with the scars and the stripes forever and ever


(Chorus)


Outro:


 Em ,  G ,  Em ,  G ,  Em 


Rock En ROLL!

Love Alone Is Worth The Fight solo Tabs by Switchfoot

 Love Alone is Worth the Fight: Solo

This is how to play the solo from Love Alone is Worth the Fight. Drew uses a slide. 
These are 3 different ways to play it. I prefer the 3rd, but they all work. The first one is 
an octave lower. Enjoi :)

e---------------------------------------------------------------------------------------|
B---------------------------------------------------------------------------------------|
G---------------------------------11/--------9-8----------------------------------------|
D--4~/9~~13/8~~11/6~~-----4~/9~~------8~----------6~~-----------------------------------|
A---------------------------------------------------------------------------------------|
E---------------------------------------------------------------------------------------|


e---------------------------------------14/--------12-11--------------------------------|
B--7~/12~~16/11~~14/9~~------7~/12~~------11-------------9~~----------------------------|
G---------------------------------------------------------------------------------------|
D---------------------------------------------------------------------------------------|
A---------------------------------------------------------------------------------------|
E---------------------------------------------------------------------------------------|

e---------------------------------------------------------------------------------------|
B--------------16/11~~14/9~~----------------19/-------17-16----9~~----------------------|
G--11~/16~~--------------------------11~16~~---15~--------------------------------------|
D---------------------------------------------------------------------------------------|
A---------------------------------------------------------------------------------------|
E---------------------------------------------------------------------------------------|

Symmetry Tabs by Title Fight

 Title Fight - symmetry

tunning: D# G# C# F# A# D#

the bass line is same as the rythm guitar part

[A] left guitar & bass
------------------------------------------------------------------|
------------------------------------------------------------------|
-----3-3-3--------------------------------------------------------| 5x
-0-0-------5-3-7-3------------------------------------------------|

[A] Right guitar
-10-7-7-7--------10-7-10-7-7-12-10-7-10-7-------------------------|
----------8-10-8--------------------------------------------------|
------------------------------------------------------------------|
------------------------------------------------------------------|
------------------------------------------------------------------|
------------------------------------------------------------------|

[B]
------------------------------------------------------------------|
------------------------------------------------------------------|
-----3-----3------------------------------------------------------| 2x
-0-0---0-0---5-3-7-3----------------------------------------------|

[C]
------------------------------------------------------------------|
------------------------------------------------------------------|
-----------------3-3-3-3------------------------------------------| 2x
-0-0-0-0-3-3-3-3---------3-3-3-3-5-5------------------------------|

1x A here

4X C but another rythm (refren)

[D]
------------------------------------------------------------------|
------------------------------------------------------------------|
---3---3---3-3-3-3-3---3-3-3-3-3----------------------------------|
-0---0---0-----------0--------------------------------------------|

4x A

then 4x C (refren)

0 or 7 for 1 beat

[E] right guitar

------------------------------------------------------------------|
------------------------------------------------------------------|
-7-10-10-3-9-5-7--------------------------------------------------| 9x
------------------------------------------------------------------|

[E] left guitar and bass

------------------------------------------------------------------|
------------------------------------------------------------------|
-7-2-2-3-10-10-7-2-2-3--------------------------------------------| 8x
-----------------------3-3----------------------------------------|

Youre A Liar chords – Title Fight

 Standard Tuning

Chords:
 B  x9987x or x442xx
 E  022100
 G#  466444
 F#  244322
 B ' 979877


 B 
Your talk is cheap, your lies are weak

So hold your breath, don't even speak
          E 
You're a liar. You're a liar.
          B 
You make dirt mounds mountains

Raindrops fountains, small problems big
       B '               E 
I can do without your problems, you're a problem


        G# F# E B 
You're desperate at best, all you do is complain
    G# F# E B 
I apologize for all the times I tried to help in any way
     G# F# E B G# F# E 
And oh, did I mention your cries for attention are driving me insane?


 B 
Your talk is cheap, your lies are weak
                
So hold your breath, don't even speak
          E 
You're a liar. You're a liar.
          B 
You make dirt mounds mountains

Raindrops fountains, small problems big
       B '               E 
I can do without your problems, you're a problem


    G# F# E B 
So lately I've mainly been looking back
          G# F# E B 
To these past things the past brings and how the few should act (?)
        G# F# E B 
No one notices your issues they don't even make a mark
                    G# F# E B      
They're just these stupid things that you bring like shadows in the dark


(interlude)
 E B B '                   E 
So while you're running your mouth, saying things that aren't true
      B B '           E B 
I'll sit back and relax and realize how worthless I am, just for you
              B '              E B          
And all I'll say is this is the end of what we had
    B '                 E 
Sincerely, your best friend