Tag: free

Free Realms Ost Briarheart Tabs – Misc Computer Games

 These are the three themes played throughout THIS OST, 
the themes should follow through the other 2 songs from the Briarwood area.

e|----------------------------------|
B|----------------------------------|
G|----------------------------------|
D|7---6---7---8---7-----------------|
A|-------------------8-7-5-7--------|
E|----------------------------------|

e|----------------------------------|
B|----------------------------------|
G|-------------------7--------------|
D|7---6---7---8---7-----------------|
A|---------------------8-7-5-----5--|
E|---------------------------8------|

e|----------------------------------|
B|----------------------------------|
G|7-----7------10-9-7--9-10-9---7---|
D|--8-----7-------------------------|
A|----------------------------------|
E|----------------------------------|

e|---------------------|  
B|---------------------|  
G|7-----------7--------|  
D|--10-9-9-10----7--6-7|   
A|---------------------|   
E|---------------------| 

e|---------------------|                         
B|---------------------|                     
G|---------------------|                   
D|---------------------|                   
A|5-7-8-8-7-5-7--------|
E|---------------------|

//Original tabbing - diingus
//Many thanks to YouTube user >Scott Cindershot< for ripping the OST and putting it up on YouTube
//His YouTube channel: https://www.youtube.com/user/ScottMoltendawn
//Thanks, Scotty-boy

Free Of The Blues chords – Webb Pierce

 G D7 G 
Gone are all my miseries that were caused by memories

                C D7 G 
No more bitter tears for me since the blues have set me free

                   D7 G 
Blues you finally set me free blues you finally let me be

                       C D7 G 
Though I know why you haunted me another took my love you see

 
 C 
When you said goodbye I thought I'd die

 G D7 
I never dreamed I could be so blue

 G D7 G 
Gone are all my miseries that were caused by memories

                C D7 G 
No more bitter tears for me since the blues have set me free

  
 C 
When you said goodbye I thought I'd die

 G D7 
I never dreamed I could be so blue

 G D7 G 
Gone are all my miseries that were caused by memories

                C D7 G 
No more bitter tears for me since the blues have set me free 

Finally Free chords – Rend Collective Experiment V2

 INTRO-  C D E Am C Am C D C D E Am C Am C Em D C B C 
VERSE 1
        C      
Your mercy rains from heaven
   F C 
Like confetti at a wedding
     F C 
And I am celebrating
            G 
In the downpour

        C       
Your heart is wild with color
          F C 
Like a never-ending summer
      F C 
You burn away the winter
         G C 
Of my cold and weary heart

CHORUS
     C G Am F G 
My soul cries out holy, holy
      C G Am F G 
My heart is lost in Your beauty
      C G Am F G 
All hope is found in Your mercy
      C G Am F G 
You paid the price now I am 
           C 
Finally free

 C F G C F 

VERSE 2
        C      
Your grace, oh God's the anchor
           F C 
That's holding me forever
         F C 
Come trouble or high water
          G 
I am steadfast

            C 
Yeah, you lift me when I'm sinking
            F C 
Like the swell of mighty oceans
       F C 
The power of redemption

Yeah, it gives me wings to soar

VERSE 3
        C         
We'll cast our crowns before Him
             F C 
Like the rusting leaves of autumn
       F C 
Now every chain lies broken
        G C 
And finally we're free

CHORUS

Free chords – Kenneth Alvares

 --------FREE--------
By: Kenneth Alvares

*Use simple plucking of the chords*

Intro:  Am C Am C 

=VERSE 1=
 Am 
I feel under
 C 
Weight pulls me down
          Am 
We were tied to each other
        C 
Now I'm chained to the ground
 Am 
It's almost over
 C 
The end is near
 Am 
But I'm not alone yeah 
 C 
There's others here
 Am 
Just like me thev'ye
 C 
been in a cage
 Am 
locked up forever
 C 
Never to escape
 Am 
They feel it also
 C 
a whisper on the wind
 Am 
a promise of tomorrow
 C 
a hope, it makes us sing
 
=CHORUS=
 F Em 
We, We could be free
 F Em 
We, We could be free


=VERSE 2=
 Am 
No longer slaves
     C  
not crafted by a hand
      Am 
but molded by surroundings
       C 
in an unbiased land
 Am 
No longer products
 C 
of a machine
 Am 
But self aware and 
 C 
free to believe

=CHORUS=
 F Em 
We, we could be free
 F Em 
we, we could be free
 F Em 
Oh..
 F Em 
Oh..

=VERSE 3+
 Am 
We're breaking out now
 C 
Bring down the walls
 Am 
We will escape now
       C 
to a freedom we've bled for
 Am 
No more outcasts
          C 
There'll be no fitting in
 Am 
We'll  all be different
      C 
And proud in our skin.
 Am 
We wont be crushed 
     C 
or molded their way
 Am 
We'll live how we want
      C 
guided by our mistakes
 Am 
And what once was
 C 
Just a fantasy
 Am 
Is now the truth for
 C 
you and for me 
 Am 
Everyone knows it
 C 
Everyone sees
 Am 
That at last 
     C 
in reality

=CHORUS=
 F Em 
We, we are free
 F Em 
we, we are free
 F Em 
Oh...
 F Em 
Oh..
 F Em 
Free, we are free
 F Em 
Free, we live in free
 F Em 
Free..
 F Em 
Free..

 F 
(Pluck once)
 Em 
(Pluck once)
 Am 
(Strum all strings  down slowly and let it fade away)...

I Feel Free solo Tabs by Cream V2

 -----------------------------------------------------------------
                      I Feel Free - Cream
-----------------------------------------------------------------

 : Aeonoptic

Tuning: EADGBe
  
E|------|----------------------------|-----------------------|
B|------|--------------12b14---------|12b14~-14p12p10--------|
G|14~~~~|--14p12p11-13-------13pbr14~|----------------14-13~~|
D|------|----------------------------|-----------------------|
A|------|----------------------------|-----------------------|
E|------|----------------------------|-----------------------|

E|---------|-----------------------|------------------------------|
B|---------|-------------20--------|------------------------------|
G|17b19~~~~|-19p18p16-18----18br20~|12b14~--14p12p11-12-11-9h11-9~|
D|---------|-----------------------|------------------------------|
A|---------|-----------------------|------------------------------|
E|---------|-----------------------|------------------------------|

E|----------------------------------|10h12-12~--12-17b19-17pbr19-15~|
B|----------------------------------|-------------------------------|
G|12b14~~--12pbr14-9----9h11-9----9~|-------------------------------|
D|-------------------11--------11---|-------------------------------|
A|----------------------------------|-------------------------------|
E|----------------------------------|-------------------------------|

E|----------15h17-15b16|
B|17-15-17~------------|
G|---------------------|
D|---------------------|
A|---------------------|
E|---------------------|


| /  slide up
| \  slide down
| h  hammer-on
| p  pull-off
| ~  vibrato
| +  harmonic
| x  Mute note

Free And Alone chords by Wingnut Dishwashers Union V2

 this is danecook78's tab with the chords set to match the words

Intro
 G B7 Em C B7 Em G B7 Em 
Well I've been working on becoming what I am
 C B7 Em 
In this bus terminal bathroom
 G B7 Em 
And these days I dream like I live
 C B7 Em 
Off trash and scammed greyhound passes

 C G Em 
Why don't I take a shower ya wonder
 C 
I guess what I can't smell
 B7 
I just can't remember

 Em 
So I'm doing my best to smell 
 B7 C 
Just like this basement forever
 B7 
Forever-er-er-er-er-er

 G B7 Em 
Well isn't hitchhiking dead they all ask
 C B7 Em 
Not as long as I'm still broke and breathing
 G B7 Em 
And if they don't cut this thumb off my dead fist
 C B7 Em 
Well they won't even stop me by burying me
 C 
There ain't nothing like singing 
 G Em 
Your heart out to nobody
 C B7 
As you fall asleep by the side of the road

 Em B7 
You know I've never felt quite as free 
 C 
Or quite as alone
 B7 
Or quite as alone

end on Em

Two Beers In Tabs – Free Throw

 -------------------------------------------------------------------------------
                             TWO BEERS IN - FREE THROW
-------------------------------------------------------------------------------
: Nick Holcman
 nick.holcman
father-punk.tumblr.com

Tuning: EADGBE

INTRO: 0:00-0:25/
GUITAR 1
e|----------------------------------------------------------------------------------------------|
B|----------------------------------------------------------------------------------------------|
G|----------------------------------------------------------------------------------------------|
D|-----------------------------------6----------------------------------------------------------| x2
A|--------9----6----9----6----9--------9-6-9-6-4--------4----2----4----2----4-----4-2-4-6-4-6---|
E|----777---77---77---77---77---77------------------000---00---00---00---00---00----------------|


GUITAR 2
(come in second time)
e|----------------------------------------------------------------------------------------------|
B|----------------9-----------------------------------------------------------------------------|
G|---11-8-11-8-11---11-8-11-8---------------------------8----8----------------------------------|
D|----------------------------11---11-9-11-9-11-11-9-11---11------------------------------------| x1
A|----------------------------------------------------------------------------------------------|
E|----------------------------------------------------------------------------------------------|


VERSE: 0:26-0:50/1:05-1:28
GUITAR 1
e|----------------------------------------------------------------------------------------------|
B|----------------------------------------------------------------------------------------------|
G|----------------------------------------------------------------------------------------------|
D|-----------------------------------6----------------------------------------------------------| x2
A|--------9----6----9----6----9--------9-6-9-6-4--------4----2----4----2----4-----4-2-4-6-4-6---|
E|----777---77---77---77---77---77------------------000---00---00---00---00---00----------------|

GUITAR 2
e|----------------------------------------------------------------------------------------------|
B|----------------9-----------------------------------------------------------------------------|
G|---11-8-11-8-11---11-8-11-8---------------------------8----8----------------------------------|
D|----------------------------11---11-9-11-9-11-11-9-11---11------------------------------------| x2
A|----------------------------------------------------------------------------------------------|
E|----------------------------------------------------------------------------------------------|

GUITAR 3
e|-------------------------------------|--------------------------------|
B|--4------4------4---4-7-4---4--------|-------------------7-4---4------|
G|----6-4----6-4----6-------6---6-4----|---666-4-666-4-666-----6---6-4--| x2
D|-------------------------------------|--------------------------------|
A|-------------------------------------|--------------------------------|
E|-------------------------------------|--------------------------------|


CHORUS:0:51-1:04/1:29-end)

GUITAR 1 (distortion)
     "fuck........everything.................about this/him"
e|------------------------------------------------------------------------|
B|------------------------------------------------------------------------|
G|---4444444444---444444444444---9999999999---4444444444------------------|
D|---4444444444---444444444444---9999999999---4444444444------------------|
A|---2222222222---222222222222---7777777777---2222222222------------------|
E|------------------------------------------------------------------------|

GUITAR 2 (distortion)
e|------------------------------------------------------------------------|
B|------------------------------------------------------------------------|
G|---4444

Free Love Freeway Tabs – David Brent

 
-------------------------------------------------------------------------------
         Free Love Freeway - David Brent (featuring Noel Gallagher)
-------------------------------------------------------------------------------

: Drew Davie
 dd326@bath.ac.uk

Tuning: Standard

Chords used:

       EADGBe
C     (x32010)  
F     (x3321x)
Am    (x02210)
G     (3x0033)


Verse 1 (Palm muted):
C       F       Am      G
Pretty girl on the hood of a Cadillac, yeah
C       F       Am      G
She's broken down on Freeway 9
C       F       Am      G
I take a look, I get her engine started,
C       F       Am      G
Leave her purring and I roll on by. Bye, bye

Chorus (Palm muted):
C       F       Am      G
Free love on the free love freeway, the
C       F       Am      G
Love is free and the freeway's long, I got some
C       F       Am      G
Hot love on the hot love highway, ain't
C       F       Am      G
Going home 'cause my baby's gone (she's dead)

(Strumming chords now)

C       F       Am      G         x2

Verse 2:
C       F       Am      G
A little while later, see a Senorita,
C       F       Am      G
She's caught a flat trying to make it home.
C       F       Am      G
She says, "Por favor, can you pump me up?"
C       F       Am      G
I said, "Muchos gracias, and adios. Bye, bye."

Chorus 

Solo:


  
e|---------------------------------------------------------------------------|
B|---------------------------------------------8-13-10-15b17-15-13-----------|
G|-7b9-7-5-------------------------------5-7-9---------------------14--------|
D|---------7-5-----------------------5-7-------------------------------------|
A|-------------7-5-3-5b7-5-3---3-5-7-----------------------------------------|
E|---------------------------5-----------------------------------------------|

e|------------12h13p12-----------------15b17r15-13-12-13-12------------------|
B|-15b17-(17)----------15-15b17-15-13----------------------------------------|
G|---------------------------------------------------------------------------|
D|---------------------------------------------------------------------------|
A|---------------------------------------------------------------------------|
E|---------------------------------------------------------------------------|

e|-12-13-12-13~--13-12-13-15~--15-13-12-13~--12~-----------------------------|
B|----------------------------------------------13---------------------------|
G|-------------------------------------------------12--10-9-10-9-------------|
D|---------------------------------------------------------------------------|
A|---------------------------------------------------------------------------|
E|---------------------------------------------------------------------------|


Verse 3 (Single strums):
C       F       Am      G
Down the road I see a cowboy crying
C       F       Am      G
"Hey buddy, what can I do?"
C       F       Am      G
He says, "I had a good life, had about a thousand women,"
C       F       Am      G
I said, "Why the tears?", he says, " ' Cause none of them was you".

(Strumming again):
C       F       Am      G 

until fade out.



************************************

| /   slide up
| \   slide down
| h   hammer-on
| p   pull-off
| ~   vibrato
| +   harmonic
| x   Mute note
| b   Bend
| pb  Pre-bend
| br  Bend release
| pbr Pre-bend release
| brb Bend release bend

************************************

Slow Train Tabs – Rainbows Are Free

 -------------------------------------------------------------------------------
                             Slow Train - Rainbows Are Free
-------------------------------------------------------------------------------
: VakiPitsi


Tuning: Standard (eBGDAE)

Intro (0:00)

e|------------------------------------------------------------------------------------------------------------|
B|------------------------------------------------------------------------------------------------------------|
G|------------------------------------------------------------------------------------------------------------|
D|----------------2---------2-4p2------------4-4-4--7-7-7----------------2---------2-4p2---2-------4-4-4--7-77|
A|-h4-4-4-2-4-2-4---4-4-2-4-------4-4--4-2-4-4-4-4--7-7-7--4-4-4-2-4-2-4---4--4-2-4------4---4-2-4-4-4-4--7-77|
E|-------------------------------------------2-2-2--5-5-5------------------------------------------2-2-2--5-55|

Riff 1 (0:17)

e|-------------------------------------------------------|
B|-------------------------------------------------------|
G|-------------------------------------------------------|
D|--------4p2-4p2-------------------4p2---2--------------|
A|-4--2h4---------------2h4---4-2h4-----4---4-2----------|
E|----------------2h3h4----------------------------------|

Riff 2  ((0:43)                      Riff 3 (0:46)

e|----------------------|----------------------------------------------------------------|
B|----------------------|--------------------------------------------------------3-------|
G|----------------------|-------------------------2-------------------------2-------4----|
D|--------6-6-6--4-4-4--|-4-4-4-4-4-4---------2-----4--4-4-4-4-4-4-4--2h3h4----4---------|
A|-4-2h4--6-6-6--4-4-4--|-4-4-4-4-4-4---2h3h4---4------4-4-4-4-4-4-4---------------------|
E|--------4-4-4--2-2-2--|-2-2-2-2-2-2------------------2-2-2-2-2-2-2---------------------|

Riff 4 (1:42)

e|--------------------------------------|
B|--------------------------------------|
G|--------------------11b---------------|
D|--------------9-9-9-----11------------|
A|--11-11--9-9--------------------------|
E|--------------------------------------|

Riff 5 (2:01)                    Riff 5.1

e|---------------------|----------------------------------------|
B|---------------------|----------------------------------------|
G|---------------------|--------------------9-9-9--11b----------|
D|-11-9-11b~~p9-9-11---|-11-9-11b~~p9-9-11-------------11-------|
A|---------------------|----------------------------------------|
E|---------------------|----------------------------------------|

Riff 6 (2:44)

e|-----------------------------|
B|-----------------------------|
G|-----------------------------|
D|-4-4-4-4-4-4--6-6--4-4-4-----|
A|-4-4-4-4-4-4--6-6--4-4-4-----|
E|-2-2-2-2-2-2--4-4--2-2-2-----|


Riff order:

Intro  
Riff 1 : x4
Riff 2 
Riff 3 : x1+1/2
Riff 4   
Riff 1 : x4
Riff 3 : x1+1/2
Intro
Riff 5 : x2
Riff 5.1
Riff 6 : until the end of the song




************************************

| /   slide up
| \   slide down
| h   hammer-on
| p   pull-off
| ~   vibrato
| +   harmonic
| x   Mute note
| b   Bend
| pb  Pre-bend
| br  Bend release
| pbr Pre-bend release
| brb Bend release bend

************************************

I Wanna Be Free Tabs by Uriah Heep

                                           Artist - Uriah Heep
                                         *********************
                                        Song - I Wanna Be Free 
                                       ************************
                                       Album - Look At Yourself 
                                      **************************
                                          - Ayreon77
                                        **********************


INTRO
******
you can play normal chords if you prefer.

  A   G  D   A   G  D   A   G  D   E  A  E
[----------|----------|----------|---------]
[--------7-|--------7-|--------7-|---------]
[-6---4--7-|-6---4--7-|-6---4--7-|----2----]
[-7---5--7-|-7---5--7-|-7---5--7-|-2--2--2-]
[-7---5--5-|-7---5--5-|-7---5--5-|-2--0--2-]
[-5---3----|-5---3----|-5---3----|-0-----0-]


------------------------------------------------------
VERSE 1
*********
     A
As I wake up everyday with no new songs to play
                                        G
Feelin' like I ought to pack my bag and run
   A
My imagination flies to some other sunny skies
                                        G
Where I felt so good and everything was done
BASS
       F#m         E          G             D
And my time was my own and my heart felt so free

Come on

------------------------------------------------------
SECTION 1
**********
  E  A  E   E  A  E   A A A G D   A A A G D
[---------|---------|-----------|-----------]
[---------|---------|---------7-|---------7-]
[----2----|----2----|-6-6-6-4-7-|-6-6-6-4-7-]
[-2--2--2-|-2--2--2-|-7-7-7-5-7-|-7-7-7-5-7-]
[-2--0--2-|-2--0--2-|-7-7-7-5-5-|-7-7-7-5-5-]
[-0-----0-|-0-----0-|-5-5-5-3---|-5-5-5-3---]

  
------------------------------------------------------
SECTION 2
**********                                  
VERSE 2
[---------|---------|---------|---------]
[---------|---------|---------|---------]
[-6-6-6-4-|-6-6-6-4-|-6-6-6-6-|-4-4-4-4-]
[-7-7-7-5-|-7-7-7-5-|-7-7-7-7-|-5-5-5-5-]
[-7-7-7-5-|-7-7-7-5-|-7-7-7-7-|-5-5-5-5-]
[-5-5-5-3-|-5-5-5-3-|-5-5-5-5-|-3-3-3-3-]X2

VERSE 2
********
        A
I don't mind a little rain but it doesn't seem the same
                                             G
When the clouds shut out your beauty from my eyes
          A
There's a storm inside my head and I know it doesn't lead
                                  G
To a clearer day when nobody will cry

SECTION 3
**********
(USE WHA WHA FOR THESE CHORDS)
[--------2---------0-----------3----------2-]
[--------2---------0-----------0----------3-]
[--------2---------1-----------0----------2-]
[--------4---------2-----------0----------0-]
[--------4---------2-----------2------------]
[--------2---------0-----------3------------]

        F#m        E           G          D
I can't stand here alone and I need to be free

Free

------------------------------------------------------
SECTION 4
**********
[---------|---------]
[---------|---------]
[----2----|----2----]
[-2--2--2-|-2--2--2-]
[-2--0--2-|-2--0--2-]
[-0-----0-|-0-----0-]


------------------------------------------------------
01:45
SOLO
*****                    
[----whammy-----------------------|----------b-------rb-----s---]
[-b---------rbp------h-p--------s-|--h---10-12-~~~--12-10-8-\17-]
[-4-/\/\/\--4--2----2-4-2-2-~~~-\-|-9-11------------------------]
[----------------4----------------|-----------------------------]
[---------------------------------|-----------------------------]
[---------------------------------|-----------------------------]


 GUITAR 1                                   b
[----h--5--|----h--5--|----h--5--|----h--5--7--]\
[---5-7----|---5-7----|---5-7----|---5-7-------] \
[----------|----------|----------|-------------]  \
[----------|----------|----------|-------------]   \
[----------|----------|----------|-------------]    \

Embers chords – Hillsong Young And Free V2

 Let me know if anything is wrong. 

Embers  Hillsong Young and Free
Capo 2

Intro:  A  //  D /  F#m -- E --

VERSE 1:
 A 
 A spark in the night, a flame of hope
                            D 
Spirit of God within my soul
                     F#m 
Alive within my heart
          E 
The life in my bones

 A 
You lifted my eyes towards You Lord
                                 D 
Teaching my heart to draw in close
                         F#m 
To the all consuming God
                         D 
Our great unending hope


CHORUS
                         E 
 As ember fans into flame
                             F#m 
I'm revived within Your Name
                         A 
Your Spirit lives within me
                         D 
Your Spirit lives within me

                         E                
This fire burns in my soul
                            F#m 
Let the light of heaven glow
                           A 
For all the earth to see You
                        
All the earth to see You


D E  (first time to 2nd verse)
Instrumental   D E F#m A  (Woah)

VERSE 2:
Spirit leading me each day
Casting a light to lead the way
My God stay the path
You call me onwards

Here in all holiness on earth
Blazing forever glorious
You're the all consuming God
Our great unending hope

BRIDGE
         D 
For all of this life
            E 
Your Spirit ignites
       F#m 
A heavenly fire
       A 
Untouched by the night

          D 
You opened our eyes
         E 
Turned death into life
      F#m 
Revealing all truth
         A 
There's no one like You

Back To Life chords – Hillsong Young And Free V2

 Hey this is just an easy version to play for fun.

 Em G D  
Here in my heart you have found your place
 Em G D 
Replacing fear with your freedom
 Em C D 
You lift me up you lift me up

 Em G D 
When all seems lost in my brokenness
 Em G D 
I call your name and you answer
 Em C D 
Held by your love held by your love 

Chorus:

 C 
In the night
                        G D 
Through the struggle through the trial
                                             C 
You have made my burden light
                 G D 
You have brought me back to life again


*********Same for second verse and chorus.**********


Bridge:

 C              
You won't let go
 Em 
So I will follow
 G D 
All I am yours now and forever

 C 
You won't let go
 Em 
So I will follow
 G D 
With all I am

Alive chords – Hillsong Young And Free V3

 Hillsong Young and Free-Alive
(CAPO 2)

Intro: 
 B F# G G B A B F# G 
I was lost with a broken heart
          G B A 
You picked me up, now I'm set apart
           B F G 
From the ash I am born again
           G B A   
Forever safe in the Savior's hands
           B F# G 
You are more than my words could say
              G B A 
I'll follow you Lord for all my days
               B F# G 
I'll fix my eyes, follow in your ways
           G B A 
Forever free in unending grace

        B F# G           
'Cause You are, You are, You are my freedom
  G B A  
We lift you higher, lift you higher
  B F# G                  
Your love, Your love, Your love never ending
 G B A 
Oh oh oh

          B F# G 
You are alive in us
              G B A 
Nothing can take your place
          B F# G   
You are all we need
                G B A 
Your love has set us free
              A 
Ooo oh oh oh oh

 B F# G G B A B F# G       
In the midst of the darkest night
            G B A 
Let Your love be the shining light
             B F# G 
Breaking chains that were holding me
                G B A  
You sent Your Son down and set me free
       B F# G 
Everything in this world will fade
              G B A   
I'm pressing on till I see your face
         B F# G 
I will live that Your will be done
          G B A 
I won't stop till Your Kingdom come

        B F# G           
'Cause You are, You are, You are my freedom
  G B A  
We lift you higher, lift you higher
  B F# G                  
Your love, Your love, Your love never ending
 G B A 
Oh oh oh

          B F# G 
You are alive in us
              G B A 
Nothing can take your place
          B F# G   
You are all we need
                G B A 
Your love has set us free
              A 
Ooo oh oh oh oh

 B F# G G B A B F# G               
'Cause You are, You are, You are my freedom
  G B A      
We lift you higher
        B F# G               
'Cause You are, You are, You are my freedom
  G B A      
We lift you higher, lift you higher 
   B F# G                  
Your love, Your love, Your love never ending
 G B A 
Oh oh oh

          B F# G 
You ar

Easy To Be Free chords – Ricky Nelson

 Easy To Be Free:Ricky Nelson.
Album - Rick Nelson In Concert - on
DECCA Records in 1969.

INTRO:  Db F#  (x3)  Db B F# 

#1.
 Db F# Bbm F# 
Did you ever want to go....where you’ve never 
        Abm Db 
been before?
         F# Db F# 
Did you ever want to know things you’ve never 
         Db 
known before?

CHORUS:
 Ebm F# Ab Ebm Eb F#  
I’ll take you there with me.....and maybe then 
 Ab Db B Db F# Db 
you’ll see, it’s easy....to be free.

#2.
 Db F# Bbm F#  
Did you ever want to fly....over rainbow skies 
    Db 
so high?
 Db F# Db Bbm F# 
Did you ever wonder why.....people tell you not 

to try?

CHORUS:
 Ebm F# Ab Ebm Eb F#  
I’ll take you there with me.....and maybe then 
 Ab Db B Db F# Db 
you’ll see, it’s easy....to be free.
 Db F# B Bbm Db 
It’s so easy....to be free, yeah.


INTERLUDE:  Db B F# Db F# Db Bbm F#  

BRIDGE:
 Ebm F# Db Bbm F# Ebm 
I stood and waited where the river runs........it felt 
    Ab F# Db 
so good to feel the morning sun.
 Db F# Db F# Db 
And after all is said and done..I’m free. 

#3.
 Db F# Db Bbm F# Db 
Did you ever wonder why....life goes on even though you
 F# 
die?
 Db F# Db F# 
Did you ever want to ride, a painted pony to the sky?

CHORUS:
 Ebm Ab Ebm Ab 
I’ll take you there with me and maybe then you’ll see..
      Db B Db 
it’s easy....to be free, yeah.
 F# Db B Db 
It’s so easy to be free, yeah.


INTERLUDE:  Db B F# Db F# Db Bbm F#  


BRIDGE:
 Ebm F# Db Bbm F# Ebm 
I stood and waited where the river runs........it felt 
    Ab F# Db 
so good to feel the morning sun.
 Db F# Db F# Db 
And after all is said and done..I’m free. 

#4.
 Db F# Db Bbm F# Db 
Did you ever wonder why....life goes on even though you
 F# 
die?
 Db F# Db F# 
Did you ever want to ride, a painted pony to the sky?

CHORUS:
 Ebm Ab Ebm Ab 
I’ll take you there with me and maybe then you’ll see..
      Db B Db 
it’s easy....to be free, yeah.
 F# Db B Db 
It’s so easy to be free, yeah.


OUTRO:  Db B Bbm F# Db 


A sixties smash from Krazie

In A Newfound Land You Are Free chords – Villagers

 F#7  can be played as  F#  if you prefer : )



 D   Gadd#11 -  G   x3

 D F#7 Bm C G 
How heavy you are, my newborn child
    C G F#7 Bm 
So viciously free, so careless and wild
          C G F#7 Bm 
With the eyes of a saint and the soul of a thief
       D        Gadd#11 -  G 
And a newfoundland

 D        Gadd#11 -  G D        Gadd#11 -  G D F#7 Bm C G 
The window's reveal the spinning sea
       C G F#7 Bm 
Which ripples and rolls as it runs underneath
       C G F#7 Bm 
And I smuggle this sense of sheer disbelief
      D        Gadd#11 -  G 
In a newfoundland

 D        Gadd#11 -  G   x2

 D F#7 Bm C G 
Born in the birth of the mild month of May
          C G F#7 Bm 
And your gentle repose, I could never betray
         C G F#7 Bm 
But for now I am burnt by a lifetime too brief
               D       Gadd#11 -  G 
And with this newfoundland

 D       Gadd#11 -  G D         Gadd#11 -  G 
Comes a newfound grief

 D       Gadd#11 -  G Dm/A Dm/Bb Dm/B 
But in a newfoundland

 A A6 A7 D       Gadd#11 -  G 
You are free

 D        Gadd#11 -  G D        Gadd#11 -  G D

Break Free chords – Christian

 Intro:  F#m D 

VERSE 1
 F#m D 
Would you believe me, would you listen if I told you that
 F#m D 
There is a love that makes a way and never holds us back
 F#m 
So won’t you break free won’t you break free
                        D 
Get up and dance in His love
 F#m 
So won’t you break free won’t you break free
                        D 
Get up and dance in His love

 F#m D 
Who would have thought that God would give His one and only Son
 F#m D 
Taking a stand upon the cross to show us perfect love
 F#m 
So won’t you break free won’t you break free
                        D 
Get up and dance in His love
 F#m 
So won’t you break free won’t you break free
                        D 
Get up and dance in His love

CHOURUS:
 A D F#m 
There’s no escaping the truth no mistaking it’s You
                   D 
God forever we’ll get up and dance get up and dance and praise You
 A D F#m 
There’s no escaping Your light no mistaking Your life
                          D 
Across the world we will get up and dance get up and dance and praise You

Intro

VERSE 2
 F#m D 
Now is the time to take this freedom that has come our way
 F#m D 
Offer our lives to see the glory of His name
 F#m 
So wont you break wont you break free
            D 
Get up and dance in his love
 F#m 
So wont you break wont you break free
            D 
Get up and dance in His love, His love never ending

BRIDGE:
         E F#m D 
And for all our days we are holding on holding on
    E F#m D 
To all Your ways we are holding on holding on
    E F#m D E D 
To all You’ve said and You’ve done we are holding on to Your love

Now we will dance

Then it goes to the funk part which is F#m7 and Bm7

 F#m7 Bm7 
So won’t you break free won’t you break free get up and dance

Won’t you break free x4
         D 
in his love, his love never ending

Set Me Free chords – Praise And Worship

 Intro:
 Am Fmaj7/A D2 Am 

Verse 1:
 Am Am7 Fmaj7/A 
It hasn't always been this way
                      D2 
I remember brighter days
 D2 
Before the dark ones came
 Am 
Stole my mind
 Am 
Wrapped my soul in chains
        Am7 Fmaj7 
Now I live among the dead
                        D2 
Fighting voices in my head
           Dsus Am 
Hoping someone hears me crying in the night
 Am 
And carries me away

Chorus:
         F Am 
Set me free of the chains holding me
    F Dsus 
Is anybody out there hearing me?
 D Am F 
Set me free

( F )  D2 Am 

Verse 2:
 Am Am7 Fmaj7/A 
Morning breaks another day
 Fmaj7/A 
Finds me crying in the rain
 D2 Am Am7 
All alone with my demons I am
 Am Am7 
Who is this Man that comes my way?
 Fmaj7/A 
The dark ones shriek
                  D2 
They scream His name
             Dsus Am 
Is this the One they say will set the captives free?
 Am 
Jesus, rescue me!!!

Chorus:
         F Am 
Set me free of the chains holding me
    F Dsus 
Is anybody out there hearing me?
 D G 
Set me free

Bridge:
 G Dm7 
As the God man passes by
    F G 
He looks straight through my eyes
                      Am7 
And darkness cannot hide

Chorus  B :
( Am7 )               F 
Do you want to be free?
           Am 
Lift your chains
 Am 
I hold the key
     F Dsus 
All Power on Heaven and earth belong to Me
 D F 
Do you want to be free?
           Am 
Lift your chains
 Am 
I hold the key
     F Dsus 
All Power on Heaven and earth belong to Me

Outro:
 D Am 
You are free
         F D2 
You are free
         Am 
You are free

Free Tabs by Dark New Day

 Dark New Day: Free

: mysticguitar77

YouTube Channel: MysticGuitar77

Date last modified: January 20, 2014

Tuning: Modified Drop A# (A#,F,A#,D#,F,A#)

Note: Only tabbed what I played in my cover which is enough for one guitar
      to play through the song and take note of the tuning which is
      standard Drop A# except the 1st and 2nd strings are tuned down
      an additional full step. You need to tune this way to get the
      right harmonics to play the intro/verses.

Riff 1 (clean, let all notes ring out)
A#|-----------------12*-|
 F|--------12*----------|
D#|----12*------12*-----|
A#|-13------------------| x3
 F|---------------------|
A#|---------------------|

A#|---------------------|
 F|--------12*------12*-|
D#|----12*------12*-----|
A#|-13------------------|
 F|---------------------|
A#|---------------------|

A#|-------------7*-|
 F|------7*--------|
D#|---7*-----7*----|
A#|-0--------------| x3
 F|----------------|
A#|----------------|

A#|------0----------0----|
 F|----------------------|
D#|-9/10---10-10/12---12-|
A#|----------------------|
 F|----------------------|
A#|----------------------|

Play Riff 1 x4   "Can you live without one red cent..."

Riff 2 (distortion)   "Free, now are you..."
A#|-------------------------------------------------|
 F|-------------------------------------------------|
D#|-12-12-12-12-12-12-12-12-12-12-12-12-12-12-12-12-|
A#|-10-10-10-10-10-10-10-10-10-10-10-10-10-10-10-10-|---|
 F|-10-10-10-10-10-10-10-10-10-10-10-10-10-10-10-10-|   |
A#|-10-10-10-10-10-10-10-10-10-10-10-10-10-10-10-10-|   |
                                                        |
A#|---------------------------------|                   | x2
 F|-------------------------8-8-8-8-|                   |
D#|-----------------7-7-7-7-7-7-7-7-|                   |
A#|-7-7-8-8-8-8-8-8-5-5-5-5-5-5-5-5-|-------------------|
 F|-5-5-5-5-5-5-5-5-5-5-5-5-5-5-5-5-|
A#|-5-5-5-5-5-5-5-5-5-5-5-5-5-5-5-5-|

A#|-------------------------------------------------|
 F|-------------------------------------------------|
D#|-12-12-12-12-12-12-12-12-12-12-12-12-12-12-12-12-|
A#|-10-10-10-10-10-10-10-10-10-10-10-10-10-10-10 10-|
 F|-10-10-10-10-10-10-10-10-10-10-10-10-10-10-10-10-|
A#|-10-10-10-10-10-10-10-10-10-10-10-10-10-10-10-10-|

A#|---------------------------------|
 F|---------------------------------|
D#|---------------------------------|
A#|-7-7-8-8-8-8-8\7-7-7-7-7-7-7-7-7-|
 F|-5-5-5-5-5-5-5\3-3-3-3-3-3-3-3-3-|
A#|-5-5-5-5-5-5-5\3-3-3-3-3-3-3-3-3-|

Riff 3   "When I'm stuck here on the ground..."
A#|----------------------------------------------------------------------|
 F|----------------------------------------------------------------------|
D#|----------------------------------------------------------------------|
A#|----------------------------------------------------------/10-10-8-8\-|
 F|-/5-5-------------------------------/5-5------------------/10-10-8-8\-|
A#|------1-0--0-/5-4b-4-4-/10-10-8-8-0------1-0--0-/5-4b-4-4-/10-10-8-8\-|

Play Riff 1 x3   "Can you fly without your wings on board..."
Play Riff 2 x1   "Free, now are you..."
Play Riff 3 x2   "When I'm stuck here on the ground..."

Fill 1
A#|---------------------------------------------------------------|
 F|---------------------------------------------------------------|
D#|---------------------------------------------------------------|
A#|---------------------------------------------------------------|
 F|---------------------------------------------------------------|
A#|-7-7-7-7-7-5-4-4-4-5-0-0-0-2-2-2-4-5-5-5-5-7-8-8-8-8-8-8-8-8-8-|
    * * * * * * * * * * * * * * * * * * * * * * * * * * * * * * *

A#|-----------------------------------------------------------------------|
 F|-----------------------------------------------------------------------|
D#|-----------------------------------------------------------------------|
A#|--------------

Little Bit Of Love chords – Free

 FREE -  Little bit of Love

        C 
I believe
               F 
If you give
                          C 
A little bit of love
                          F      
To those you live with
                           C 
A little bit of love
                  G 
Oh oh oh
          F C 
Has gotta come your way.

                      G 
Well in my mind
    F 
It's easy
       C 
To lose sight of the truth
 G 
 But in my heart
 I can't deny
 F G 
My feeling inside

                  C 
'cos i believe
              F 
If you give
                          C 
A little bit of love
                          F      
To those you live with
                           C 
A little bit of love
                  G 
Oh oh oh
          F C 
Has gotta come your way.

                      
Man in the sky
You say you are flying
To lose sight of the world
You wanna stay high
Then don't deny
Your feeling inside

'cos i believe
If you give
A little bit of love
To those you live with
A little bit of love
Oh oh oh
Has gotta come your way.

Yeahh!
Whooo!

I believe
If you give
A little bit of love
To those you live with
A little bit of love
Oh!
Has gotta come your way.

I believe
If you give
A little bit of love
To those you live with
A little bit of love
Whooooo
Has gotta come your way.

Live And Be Free chords – Tim Mcmorris

 No one has done this song before I guess. So enjoy, folks!

 F A  
Life is good, it is good, to, me
 Dm Ab F C 
And it was meant, for you, to live and be free, to live and be free
 F A  
Walk the path, take some time to laugh
 Dm Ab F C 
And maybe it’s been, a while, but even try to smile, even try to smile
 
 F A Dm C  
Cause today is only here and then it’s tomorrow
 Ab F C 
There’s no point livin’ a life that full of regret and drownin’ in sorrow
 F A Dm C  
Lift your head up high and open your eyes
 Ab F C 
You can choose to be happy, if you try, you might be surprised
 Ab F C A 
Choices that you have made can be revised

 F A  
Have no fear, for the time, you’re here
 Dm Ab F C 
And if you don’t know where to start, then follow your heart, follow your heart
 F A  
And run, run fast, learn from things, that have passed
 Dm Ab F C 
And know that everything O.K,
 F C 
just make that choice today, make your choice today
 
(Repeat Chorus)