Tag: Freedom

Go Chords – Avalanche City

Avalanche City - Go 
(Written by Dave Baxter)
From the amazing debut album "Our New Life Above the Ground"

~~~~~~~~~~~~~~~~~~~~~~~~~~~~~~~~~~~~~~~~~~~~~~~~~~~~~~~~~~~~~~~~~~~~~~~~~~~~

Standard Tuning (EADGBE) Capo 5th Fret

Chords:

    Em   C    G   G/f#
E|--0----0----3----3--|
B|--0----1----3----3--|
G|--0----0----0----0--|
D|--2----2----0----0--|
A|--2----3----2----2--|
E|--0----x----3----2--|

~~~~~~~~~~~~~~~~~~~~~~~~~~~~~~~~~~~~~~~~~~~~~~~~~~~~~~~~~~~~~~~~~~~~~~~~~~~~

Intro: 
Em, C, G, G/f# (x2)

Em        C       G                G/f#     
Go lovely go far away I've set you free
       Em            C             G          G/f#    
Cos I know that we belong held in arms of the sea
             Em               C           G               G/f#    
And there's other things are all on your mind through the day
           Em          C       G                  G   G   G   G   G/f#  
And it's understood to me we belong in freedom's ways.................

     Em  C         G       G/f#    
Well I heard the daylights long 
         Em        C             G         G/f#   
And the seas are slight but the breeze is strong
Em              C            G              G/f#        Em   C   G   G/F#
Hope fills my sails and I'm gone but man it feels like home..............
    Em  C           G              G/f#   
And I know this is all that I've dreamed of 
    Em            C              G                 G/f#  
Cos I feel like living when the life comes back to me
Em   C         G     G/f#        Em        C    G    G/F#   
The sun shines on my face and I feel hope................

Em        C       G                G/f#     
Go lovely go far away I've set you free
       Em            C             G          G/f#    
Cos I know that we belong held in arms of the sea
             Em               C           G               G/f#  
And there's other things are all on your mind through the day
           Em          C       G                  G   G   G   G   G/f#    
And it's understood to me we belong in freedom's ways.................

     Em  C        G         G/f#     
Well I know the blood runs strong...... 
         Em                  C             G            G/f#
In your heart but it beats harder for the life in you to grow
Em       C             G            G/f#     Em    C    G    G/F#    
And you smile cos you know this is where we belong.... Yeah, Yeah

   Em        C       G                G/f#    
So go lovely go far away I've set you free
       Em            C             G          G/f#    
Cos I know that we belong held in arms of the sea
             Em               C           G               G/f# 
And there's other things are all on your mind through the day
           Em          C       G                  G   G   G   G
And it's understood to me we belong in freedom's ways..........

~~~~~~~~~~~~~~~~~~~~~~~~~~~~~~~~~~~~~~~~~~~~~~~~~~~~~~~~~~~~~~~~~~~~~~~~~~~~

God Bless the U.S.A. Lyrics – Lee Greenwood

If tomorrow all the things were gone,
I’d worked for all my life.
And I had to start again,
with just my children and my wife.

I’d thank my lucky stars,
to be livin here today.
‘Cause the flag still stands for freedom,
and they can’t take that away.

And I’m proud to be an American,
where at least I know I’m free.
And I wont forget the men who died,
who gave that right to me.

And I gladly stand up,
next to you and defend her still today.
‘Cause there ain’t no doubt I love this land,
God bless the USA.

From the lakes of Minnesota,
to the hills of Tennessee.
Across the plains of Texas,
From sea to shining sea.

From Detroit down to Houston,
and New York to L.A.
Well there’s pride in every American heart,
and its time we stand and say.

That I’m proud to be an American,
where at least I know I’m free.
And I wont forget the men who died,
who gave that right to me.

And I gladly stand up,
next to you and defend her still today.
‘Cause there ain’t no doubt I love this land,
God bless the USA.

And I’m proud to be and American,
where at least I know I’m free.
And I wont forget the men who died,
who gave that right to me.

And I gladly stand up,
next to you and defend her still today.
‘Cause there ain’t no doubt I love this land,
God bless the USA.

JoJo – Limbo Lyrics

…to get out, ..figuring out,
Trapped inside of my own cell,
My mind holding me down,
Question what’s this about,
Not feeling like myself
Not feeling like myself

Chorus:
What will keep changing?
I can’t feel the ground beneath me,
I’m making on the edge,
Unbreakable love, afraid to let go,
Too scared to picture, to the unknown,
My heart says…
I’m talking limbo, limbo, limbo, limbo!
I’m talking limbo, limbo, limbo, limbo!
And I ain’t trying to be stopped no more!

It’s time to take a chance,
Right now, no turning back,
…my fear of feeling!
..It’s my choice to try to fly
And I chose to break free
And I chose to break free!

Chorus:
What will keep changing?
I can’t feel the ground beneath me,
I’m making on the edge,
Unbreakable love, afraid to let go,
Too scared to picture, to the unknown,
My heart says…
So I’m talking limbo, limbo, limbo, limbo!
I’m talking limbo, limbo, limbo, limbo!

And I ain’t trying to be stopped no more!
I wanna run, run, run
Wanna run to freedom!
Try to find the… within me!

Afraid to hold on, afraid to let go,
Too scared to picture to the unknown,
My heart says…
I’m talking limbo, limbo, limbo!
I’m talking limbo, limbo, limbo, limbo,
And I ain’t trying to be stopped no more!
No more, no more, no more!

Only Reminds Me Of You Acoustic Chords – Mymp

 ---------------------------------------------------------------------------
			    Only Reminds Me Of You - Mymp
 ---------------------------------------------------------------------------
Tabbed by:Theio G.Mecano
Email:m.theio
Tuning:Standard

Verse1:
   C         G
   I see you, beside me
       Am
   It's only a dream
     F
   A vision of what used to be
   C            G 
   The laughter, the sorrow
   Am
   Pictures in time
   F
   Fading to memories.

Refrain:
  Em
  How could I ever let you go
  Am
  Is it too late to let you know

Chorus:
  C           G
  I tried to run from your side
     Am
  But each place I hide
    F
  It only reminds me of you
  C           G
  When I turn out all the lights
  Am
  Even the night, 
  F
  Only reminds me of you.

Verse2:
  C       G
  I needed my freedom
  Am
  That's what I've thought
     F
  But I was a fool to believe
  C             G
  My heart lied, while you cried
  Am
  Rivers of tears
    F
  But I was too blind to see.

Refrain:
   Em
  Everything we've been through before
   Am
  Now it means so much more

Chorus:
  C          G
  I tried to run from your side
     Am
  But each place I hide
   F
  It only reminds me of you
  C              G
  When I turn out all the lights
  Am
  Even the night
    F
  It only reminds me of you
   G
  Only You...

Bridge:
  Em
  So come back to me
  Am
  I'm down on my knees
  Em              Am
  Boy can't you see..

Refrain:
  Em
  How could I ever let you go
 Am          G                  C
  Is it too late to let you know

Chorus:
  C         G
  I tried to run from your side
     Am
  But each place I hide
  F
  It only reminds me of you
  C              G
  When I turn out all the lights
  Am
  Even the night
  F                         C
  It only reminds me of you.

Repeat Chorus.
End on C.

 

See His Love Chords – Jesus Culture

See His Love
Tom Lockley
Intro:
Em  C  D  B7

Verse 1:
Em                    D
See His love nailed onto a cross
            C                       D    
Perfect and blameless life given as sacrifice
Em                       D
See Him there all in the name of love
            C                    D
Broken yet glorious, all for the sake of us

Chorus:
Em            C
This is Jesus in His glory
D              B7
King of Heaven dying for me
Em              C
It is finished, He has done it
D                B7               Em
Death is beaten, Heaven beckons me

Verse 2:
Em                         D
Greater love now one could ever show
         C                     D    
Mercy so undeserved, freedom I should not know
Em                    D
All my sin, all of my hidden shame
              C                      D
Died with Him on the cross, eternity won for us

bridge:
Em         D/F#
Such love, such love
B7                     C
Such love is this for me

 

Only Reminds Me Of You Chords – Mymp V2

Verse 1:
C             G
I see you, beside me
 Am        
It's only a dream
F
A vision of what used to be
C              G      
The laughter, the sorrow
Am
Pictures in time
F
Fading to memories

Refrain:
Am         F
How could I ever let you go
C          G
Is it too late to let you know

Chorus:
 C          G                
I tried to run from your side
Am
But each place I hide
F
It only reminds me of you
C            G
When I turn out all the lights
Am
Even the night
F
It only reminds me of you

Verse 2:
C       G
I needed my freedom
Am
That's what I've thought
F
But I was a fool to believe
C              G
My heart lied while you cried
Am
Rivers of tears
F
But I was too blind to see

Refrain:
Am                F
Everything we've been through before
C            G
Now it means so much more

Chorus:
C          G                
I tried to run from your side
Am
But each place I hide
F
It only reminds me of you
C            G
When I turn out all the lights
Am
Even the night
F
It only reminds me of you

Adlib : C G Am F

Only you...

Bridge:
C               G
So come back to me
Am
I'm down on my knees
               F-G
Boy can't you see...

Am           F
How could I ever let you go
C          G
Is it too late to let you know

Chorus:
I tried to run from your side
But each place I hide
It only reminds me of you
When I turn out all the lights
Even the night
It only reminds me of you

Chorus:
C          G                
I tried to run from your side
Am
But each place I hide
F
It only reminds me of you
C            G
When I turn out all the lights
Am
Even the night
F
It only reminds me of you

(C-G-Am-F)
You, You,
Am       G               C
It only reminds me of you

 

Nexx Chapter – Who Lyrics

[verse: t]
it’s 1 a.m. and i can’t sleep
my bed has too much room for me
maybe it’s cause i can’t dream
i’m treading water it’s too deep
it’s clear that i have lost my mind
i don’t know where to go
and you were mine, but now you’re lost
ooh baby tell me, please tell me

who should i call when i have good news?
who can i show my brand new shoes?
who’s gonna be my wake up call?
ooh woah…
who can i tell my secrets to?
who’s gonna say i’ll keep it boo?
ooh baby, who?

[verse: gabi]
uh look, true story…
lot of things i don’t believe in
i don’t believe i ever really fell in love until you presented yourself
but not even ’til you were overseas did i realize how much you meant to me, my eyes, my health
believe it… veni, vidi, vici
you came, you saw, you conquered my heart without takin’ my freedom or my feelings for granted
but you didn’t stay long enough
remember when you begged to see me before you left?
but i was chillin’ with another chick
man i remember that shit like it was yesterday, forever regret it
you didn’t know that, and i didn’t need to blow that
but if you ever took me back i’d wanna know that you’d forgiven me
cause i haven’t forgiven myself, and i never wanna lie again
unless it’s next to you, and we gon’ try again
i been caressin’ you, in my mind again

man i feel blind to beauty, can’t appreciate the world around me
put everything on a pedestal since the day you found me
i know that it was real, sumtin truly rare
cause i fell in love with memories of ya once you were no more than air
damn, baby come home
cause if it lasted this long, by words, wouldn’t you concur that we could share the greatest passion for the long hall?
that the world has ever seen…
promise to make you happier than me

Waste Acoustic Chords – Foster The People

-----------------------------------------------------------------------------
			     Waste (Acoustic) - Foster The People
-----------------------------------------------------------------------------
Tabbed by: Electricarrest
Email: cmillshockey

Tuning: Standard

                  C#             Ab             Bbm   Ab
I'll hold your hand when you are feeling mad at me
         C#
When the monsters they wont go,
     Ab
The windows, they wont close,
     Bbm                      Ab
I'll pretend to see what you see

      C#             Ab               Bbm                     
  Ab
How long, I say how long, will you re-live the things that are gone?
      C#                        Ab                    Bbm     
 Ab
The devil's on your back but I know you can shake him off

      C#                        Ab                      Bbm   
    Bbm
And every day that you want to waste, that you want to waste, you can
      C#                        Ab                      Bbm   
    Bbm
And every day that you want to wake up, that you want to wake, you can
      C#                        Ab                      Bbm   
    Bbm
And every day that you want to change, that you want to change, yeah
               Cm                             C#                   Ab
I'll help you see it through because I just really want to be with you

              C#             Ab             Bbm   Ab
You know its funny how freedom can make us feel contained
           C#                        Ab             Bbm       
  Ab
When the muscles in our legs aren't used to all the walking
    C#                    Ab                     Bbm          
    Ab
I know if you could snap both your fingers than you'd escape with me
              C#                              Ab                    Bbm   But in the 
meantime I'll just wait here and listen to you when you speak, or
  Ab
scream

      C#                        Ab                      Bbm   
    Bbm
And every day that you want to waste, that you want to waste, you can
      C#                        Ab                      Bbm   
    Bbm
And every day that you want to wake up, that you want to wake, you can
      C#                        Ab                      Bbm   
    Bbm
And every day that you want to change, that you want to change, yeah
               Cm                             C#                   Ab
I'll help you see it through because I just really want to be with you

 

Jackie Evancho – All I Ask Of You Lyrics

No more talk of darkness, forget these wide-eyed fears;
I’m here, nothing can harm you, my words will warm and calm you.
Let me be your freedom, let daylight dry your tears;
I’m here, with you, beside you, to guard you and to guide you.

Say you’ll love me every waking moment, turn my head with talk of summertime;
Say you need me with you now and always, promise me that all you say is true.
That’s all I ask of you.

Let me be your shelter, let me be your light;
You’re safe, no one will find you, your fears are far behind you.
All I want is freedom, a world with no more night;
And you always beside me, to hold me and to hide me.

Then, say you’ll share with me one life, one lifetime, let me lead you from your solitude;
Say you need me with you here beside you, anywhere you go let me go too.
Love me, that’s all I ask of you.

Stay each day with me, each night, each morning;
Say you love me, you know I do.
Love me, that’s all I ask of you.

Ziggy Marley – Wild and Free Lyrics

a fire burns for freedom
a fire burns for freedom
the smell of decent is i
i am standing for the truth
too long has been denied
the data of changing is rising
i hope we realize
unchained wings let angels fly

chorus

i see … fields forever
growing wild and free
i see marijuana trees blowing in our breeze
i see .. fields forever growing wild and free
wild and free

a crime against nations
a war is .. there is a message
in the wind for every race
peace and love we saw
so let us grow is good for the ..
is good for the soul

chorus

i see … fields forever
growing wild and free
i see marijuana trees blowing in our breeze
i see .. fields forever growing wild and free
wild and free

so lost the kiss of death
deny the tree of life
stand hypocrisy for so many lies
corporation greed can only see .. survive by planting weed

chorus

i see … fields forever
growing wild and free
i see marijuana trees blowing in our breeze
i see .. fields forever growing wild and free
wild and free

chorus

i see … fields forever
growing wild and free
i see marijuana trees blowing in our breeze
i see .. fields forever growing wild and free
wild and free

crucified savior to save your face
demonized nature our saving grace
we got to put to good use
what the lord has gave
fruits of the tree herbs of the …

chorus

i see … fields forever
growing wild and free
i see marijuana trees blowing in our breeze
i see .. fields forever growing wild and free
wild and free

Shotgun Girl Chords – The Janedear Girls

(D)

I like to hold your hand up high on a ferris wheel
And how front porch swingin' with you makes me feel, yeah
But when (A) you pull up in your (Bm) big ol' truck
I can't (G) climb up in it fast enough

(Chorus)
Cuz I'm your (D) shotgun girl, (G) along for the ride
Your (C) dashboard drummer on a (G) Saturday night
(D) Crankin' up Waylon, (G) Willie and Merle (C) (bass line is F-G)
So (D) throw one arm (G) around me now, honey
We'll (C) sling that gravel (G) just like Bonnie and Clyde (D)
I'd ride with (G) you all around the (C) world
Cuz boy I'm your shotgun girl (D)
Yeah, I'm your shotgun girl

There's not a piece of road 'round here we ain't burned down
Except that stretch that heads on outta town, yeah
(A) Whenever you need to (Bm) feel that freedom
(G) Leave a little room for me

Chorus
Lead Solo (D)
Chorus

(D) I'm your shotgun girl, yeah, yeah
I'm calling shotgun baby, yeah, yeah

 

Faith When I Let You Down Chords – Taking Back Sunday

This is a solid base.

GAB 

C#    F#    Ab
Oh-Oh-Oh
Oh-Oh-Oh

C#                                 Fm
You might lose your faith in science
F#                                  Ab
You might lose your faith in wealth
C#                                 Fm
You might lose your faith in Jesus, oh
F#                                 Ab
Or lose faith in yourself

C#                           F#
But when I let you down
Fm                          Ab
Look past your doubt
C#                         F#
Just please (please)
Fm                         Ab
Don't lose your faith in me

C#                       Fm
You could lose your faith in music
F#                         Ab
Or lose your faith in friends
You could lose your faith in freedom
Feel trapped in your own skin
But I'll be right there beside you
(I'll be right there beside you)
When the walls are cavin' in
(I swear oh I'm not going anywhere)

Chorus 

(same pattern as chorus)
Oh-oh-oh
Oh-oh-oh
I'm not going anywhere
Oh-oh-oh
I'm not going anywhere
Oh-oh-oh
Oh-oh-oh

F# 
I'm not going anywhere, anywhere

Chorus

 

Come See Chords – Michael W Smith

Introduction: C G Am F

Verse 1:

     C    G
Come see
     Am              F
Come see with spirit eyes
     C    G
Come see
            Am    F
The door is open
     C    G
Come near
     Am           F
Come weary and ashamed
     C    G
Come near
             Am   F
His arms are open
             C    G    Am    F
His arms are open

Verse 2:

     C    G
Come live
     Am              F
Come live in freedom here
     C    G
Come live
               Am    F
The chains are broken
     C    G
Come rest
     Am               F
Come take his gift of grace
     C    G
Come rest
            Am    F
The word is spoken
            C    G    Am    F
The word is spoken

Verse 3:

     C    G
Come see
     Am              F
Come see with spirit eyes
     C    G
Come see
            Am    F
The door is open
     C    G
Come home
     Am               F
Come lay your burdens down
     C    G
Come home
             Am    F
His arms are open
             C     G    Am    F
His arms are open

Instrumental:
F C G Am

Chorus:

    F        C
His arms are open
    G        Am
His arms are open

 

Arch Enemy – Yesterday Is Dead and Gone Lyrics

The fires inside us tonight
These bridges
Tomorrow there’s no life
No more power

Reaching for the life beyond
We will rise to the dark again
Ready to fight fpr what
We believe to be right
Yesterday is dead and gone

Breaking the chains
Shaking the cage
Heed our war cry
Let there be no doubt
We walked out
This is reckoning time

We are standing in the flames
Reaching for the fight
Until to the end
Yesterday is dead and gone

Under a blood red sky
Our voice will be heard
In a world
Where compassion is lost
You try to control us
This is so absurd
Freedom will be won at any cost

Breaking the chains
Shaking the cage
Heed our war cry
Let there be no doubt
We walked out
This is reckoning time

We are standing in the flames
Reaching for the fight
Until to the end
Yesterday is dead and gone

-Solos-
Yesterday is dead and gone (gone, gone..)

-Solos-

Breaking the chains
Shaking the cage
Heed our war cry
Let there be no doubt
We walked out
This is reckoning time

-Solo-

This is reckoning time
Yesterday is dead and gone

Arch Enemy – No Gods No Masters Lyrics

NO GODS, NO MASTERS by Arch EnemyHere I am
Back to the wall
I picked a fight
Against the time
Free at last
I come my own way
I will resist them
To the day I die

I am who I am
My time has come

I am who I am
Take it or leave it
A rebel at heart
No gods, no masters
My time has come

There is no second place
No perfect world
Your head is whole
Freedom in your heart
Be strong
Take this chance
Make your way
A better future comes

I am who I am
My time has come

I am who I am
Take it or leave it
A rebel at heart
No gods, no masters
My time has come

No gods, no masters
No gods, no masters

What doesn’t kill us
Makes us stronger
Locked and loaded
Ready to strike
Here we stand

Loud and proud
United as one
United as one

I am who I am
Take it or leave it
A rebel at heart
No gods, no masters
My time has come
I am who I am
Take it or leave it
A rebel at heart
No gods, no masters
My time has come

Bad Kids Chords – Lady Gaga

This is my first attempt at tabbing a song. If made a mistake, please let me know, 
and I'll change it.

Key: C#m

(don't know the first part)
We don't care what people say, we know the truth
Enough is enough of this horse shit
I am not a freak, I was born with my freedom.
Don't tell me I'm less than my freedom.

C#m                           Abm
I'm a bitch, I'm a loser baby maybe I should quit
C#m                           Abm
I'm a jerk, wish I had the money but I can't find work
C#m                           Abm
I'm a brat, I'm a selfish punk, I really should be smacked
C#m                           Abm
My parents tried until they got divorced ‘cuz I ruined their lives

[Pre-Chorus]

C#m               B
I'm a bad kid and I will survive
E                 F#m              E
Oh I'm a bad kid, don't know wrong from right
C#m               B
I'm a bad kid and this is my life
E                 F#m              E
One of the bad kids, don't know wrong from right
(This is my life)

[Chorus]

B        C#m      F#m           E
Don't be insecure if your heart is pure
B        C#m      Abm           E
You're still good to me if you're a bad kid baby
B        C#m      F#m           E
Don't be insecure if your heart is pure
B        C#m      Abm           E
You're still good to me if you're a bad kid baby
A bad kid baby
(Don't be insecure)

C#m                           Abm
I'm a twit, degenerate young rebel and I'm proud of it
C#m                           Abm
Pump your fist if you would rather mess up than put up with this
C#m                           Abm
I'm a nerd, I chew gum and smoke in your face, I'm absurd
C#m                           Abm
I'm so bad and I don't give a damn, I love it when you're mad
When you're mad, when you're mad.

[Chorus]

C#m               B
I'm a bad kid and I will survive
E                 F#m              E
Oh I'm a bad kid, don't know wrong from right
C#m               B
I'm a bad kid and this is my life
E                 F#m              E
One of the bad kids, don't know wrong from right
(This is my life)

B        C#m      F#m           E
Don't be insecure if your heart is pure
B        C#m      Abm           E
You're still good to me if you're a bad kid baby
B        C#m      F#m           E
Don't be insecure if your heart is pure
B        C#m      Abm           E
You're still good to me if you're a bad kid baby
A bad kid baby
(Don't be insecure)

[Bridge]

C#m          B         E
I'm not that typical baby
C#m          Abm                  E
I'm a bad kid like my mom and dad made me
C#m          B         E
I'm not that cool and you hate me
C#m          Abm                  E
I'm a bad kid, that's the way that they made me

[Pre-Chorus]
C#m               B
I'm a bad kid I'm disastrous
E                 F#m              E
Give me your money or I'll hold my breath
C#m               B
I'm a bad kid and I will survive
E                 F#m              E
One of the bad kids, don't know wrong from right

[Chorus]

B        C#m      F#m           E
Don't be insecure if your heart is pure
B        C#m      Abm           E
You're still good to me if you're a bad kid baby
B        C#m      F#m           E
Don't be insecure if your heart is pure
B        C#m      Abm           E
You're still good to me if you're a bad kid baby
A bad kid baby

A bad kid baby
A bad kid baby
A bad kid baby

 

Our Freedom Tabs by Texas In July

[Our Freedom]
[One Reality]
[Texas In July]

Tuning: CGCFAD (Drop C / 1 Step Down From Drop D)
joshuaoliveira

As Requested By: JRohrer14

[Riff 1] - [00:02] - [00:16------------------------------------------| - [4x]
- -------------------------------------------------------------------|
- -------------------------------------------------------------------|
- -------------------------------------------------------------------|
- -------------------------------------------------------------------|
- -0-0-0-0---0-0-0---0---0-0---0-0-0-0-0-0---0---0-0---0-0---0----0--|
- -0-0-0-0---0-0-0---0---0-0---0-0-0-0-0-0---0---0-0---0-0---0----0--|
PM ................................................................

[Riff 2] - [00:08] - [00:16-------------------------| - [2x]
- --------------------------------------------------|
- ----------------------------11p10-----------------|
- ----------------------14----------12----------12--|
- -12-------------12-------------------13----12-----|
- ----13-10-10-10----10----10-------------10--------|
- --------------------------------------------------|
PM       ..    ..    ..    ..

- ------------------------------------------|
- ------------------------------------------|
- ------14-------10h12----------------------|
- -0h12----------------12-------------------|
- ---------10h13----------------------------|
- ------------------------12b-0-12b-0-0-12b-|

----------------------------------------------------------------------------

[Riff 3, Guitar 1 & 2] - [00:16] - [00:25----------------------------| - [2x]
- -------------------------------------------------------------------|
- -------------------------------------------------------------------|
- -------------------------------------------------------------------|
- -------------------------------------------------------------------|
- -------------------------------------------------5b----5b------5b--|
- -0-8-0-5-0-0-0-7-0-8-7-5-1-5-0-5-0-0-7-0-3-3/5-0-----0-----0-0-----|
-
- ------------------------------------------------------------------|
- ------------------------------------------------------------------|
- ------------------------------------------------------------------|
- ---------------7---8-7-5-------5-----7-----3/5--------------------|
- -5---------5-------------6---5-----5-----------5-5b----5b------5b-|
- ---8-0-5-0---0---0---------5-----0-----0-3-----------0-----0-0----|

[Riff 2] - [00:21] - [00:25]

----------------------------------------------------------------------------

[Riff 4, Guitar 1 & 2] - [00:25] - [00:27]
- ----------------------------------|
- ---6-6---6---6--------------------|
- ---7-7---7---7-7-7-7-7-7-10101212-|
- ---x-x---x---x-x-x-x-x-x-x-x-x-x--|
- -0-5-5-0-5-0-5-5-5-5-5-5-8-8-1010-|
- -0-----0---0----------------------|
PM .     .   .
-
- ----------------------------------|
- ---------------------10----6h8----|
- -------------------------------7--|
- -----------------0-0---5h8--------|
- -0---0-0---0-0-0------------------|
- -0---0-0---0-0-0------------------|
PM ...............

----------------------------------------------------------------------------

[Riff 5, Guitar 1 & 2] - [00:27] - [00:44]
- ------------------------------------------------------------------|
- ------------------------------------------------------------------|
- ------------------------------------------------------------------|
- ------------------------------------------------------------------|
- -0---0-0---0-0-0-0-0---0---8-8-8-10--8-8---8-8-8-1010--10--101010-|
- -0---0-0---0-0-0-0-0---0---8-8-8-10--8-8---8-8-8-1010--10--101010-|
PM ................................................................
-
- ------------------------------------------------------------------|
- -6-6-6-6-6-6-6-6-6-6-6-6-6----------------------------------------|
- -7-7-7-7-7-7-7-7-7-7-7-7-7-10101014141412121214141515151414141212-|
- -x-x-x-x-x-x-x-x-x-x-x-x-x-x-x-x-x-x-x-x-x-x-x-x-x-x-x-x-x-x-x-x--|
- -5-5-5-5-5-5-5-5-5-5-5-5-5-8-8-8-12121210101012121313131212121010-|
- ------------------------------------------------------------------|

- ------------------------------------------------------------------|
- ------------------------------------------------------------------|
- ------------------------------------------------------------------|
- -----------------10--10101010--1010--10101010--1010--101010101010-|
- -12121212--5-5-5-8---8-8-8-8---8-8---8-8-8-8---8-8---8-8-8-8-8-8--|
- -12121212--5-5-5-8---8-8-8-8---8-8---8-8-8-8---8-8---8-8-8-8-8-8--|
PM ...................................................
-
- ------------------------------------------------------------------|
- ------------------------------------------------------------------|
- -1414141414141414121212121212121212121212121212121010101010101010-|
- -x-x-x-x-x-x-x-x-x-x-x-x-x-x-x-x-x-x-x-x-x-x-x-x-x-x-x-x-x-x-x-x--|
- -1212121212121212101010101010101010101010101010108-8-8-8-8-8-8-8--|
- ------------------------------------------------------------------|

- ------------------------------------------------------------------|
- ------------------------------------------------------------------|
- ------------------------------------------------------------------|
- ------------------------------------------------------------------|
- -0---0-0---0-0-0-0-0---0---8-8-8-10--8-8---8-8-8-1010--10--101010-|
- -0---0-0---0-0-0-0-0---0---8-8-8-10--8-8---8-8-8-1010--10--101010-|
PM ................................................................
-
- ------------------------------------------------------------------|
- -------6-6-6-6-6-6-6-6-6-6----------------------------------------|
- -7-7-7-7-7-7-7-7-7-7-7-7-7-10101014141412121214141515151414141212-|
- -x-x-x-x-x-x-x-x-x-x-x-x-x-x-x-x-x-x-x-x-x-x-x-x-x-x-x-x-x-x-x-x--|
- -5-5-5-5-5-5-5-5-5-5-5-5-5-8-8-8-12121210101012121313131212121010-|
- ------------------------------------------------------------------|

- ------------------------------------------------------------------|
- ------------------------------------------------------------------|
- ------------------------------------------------------------------|
- -----------------10--10101010--1010--10101010--1010--101010101010-|
- -12121212--5-5-5-8---8-8-8-8---8-8---8-8-8-8---8-8---8-8-8-8-8-8--|
- -12121212--5-5-5-8---8-8-8-8---8-8---8-8-8-8---8-8---8-8-8-8-8-8--|
PM ...................................................
-
- ------------------------------------------------------------------|
- ------------------------------------------------------------------|
- -1414141414141414121212121212121212121212121212121010101010101010-|
- -x-x-x-x-x-x-x-x-x-x-x-x-x-x-x-x-x-x-x-x-x-x-x-x-x-x-x-x-x-x-x-x--|
- -1212121212121212101010101010101010101010101010108-8-8-8-8-8-8-8--|
- ------------------------------------------------------------------|

----------------------------------------------------------------------------

[Riff 3, Guitar 1 & 2] - [00:44] - [01:00] - [4x]
[Riff 2] - [00:56] - [01:00]

----------------------------------------------------------------------------

[Riff 6] - [01:00] - [01:09-----------------------------------------| - [2x]
- ------------------------------------------------------------------|
- ------------------------------------------------------------------|
- ------------------------------------------------------------------|
- ------------------------------------------------------------------|
- -0-0-0-0-----0-----0-----0---0-0-0---0-0-----0-----0-----0---0-0--|
- -0-0-0-0-----0-----0-----0---0-0-0---0-0-----0-----0-----0---0-0--|
PM ...............................................................

[Riff 7, Guitar 1 & 2] - [01:09] - [01:17]
- -----------------------------------------------------------------|
- -----------------------------------------------------------------|
- -----------------------------------------------------------------|
- -------0-------------------------------0-----------------0-------|
- -0-0-0-0-----0-----0-----0---0-0-0---0-0-----0-----0-----0---0-0-|
- -0-0-0-0-----0-----0-----0---0-0-0---0-0-----0-----0-----0---0-0-|
PM .....       ..........................      ............    ...
-
- ------------------------------------------------------------------|
- ------------------------------------------------------------------|
- -7-7-7-7-7-7-7-7-7-7-7-7-1010101014141412121214141515151414141212-|
- -x-x-x-x-x-x-x-x-x-x-x-x-x-x-x-x-x-x-x-x-x-x-x-x-x-x-x-x-x-x-x-x--|
- -5-5-5-5-5-5-5-5-5-5-5-5-8-8-8-8-12121210101012121313131212121010-|
- ------------------------------------------------------------------|

- -----------------------------------------------------------------|
- -----------------------------------------------------------------|
- -----------------------------------------------------------------|
- -------0-------------------------------0-----------------0-------|
- -0-0-0-0-----0-----0-----0---0-0-0---0-0-----0-----0-----0---0-0-|
- -0-0-0-0-----0-----0-----0---0-0-0---0-0-----0-----0-----0---0-0-|
PM .....       ..........................      ............    ...
-
- ------------------------------------------------------------------|
- ------------------------------------------------------------------|
- -1414141414141414121212121212121212121212121212121010101014141414-|
- -x-x-x-x-x-x-x-x-x-x-x-x-x-x-x-x-x-x-x-x-x-x-x-x-x-x-x-x-x-x-x-x--|
- -1212121212121212101010101010101010101010101010108-8-8-8-12121212-|
- ------------------------------------------------------------------|

[Riff 8] - [01:17] - [01:25]
- ---------------------------------------|
- ---------------------------------------|
- ---------------------------------------|
- -0-------8---10--12\-5-8---8---10-/14\-|
- -0-------8---10--12\-5-8---8---10-/14\-|
- -0-------8---10--12\-5-8---8---10-/14\-|

[Riff 7, Guitar 2] - [01:17] - [01:25]

----------------------------------------------------------------------------

[Riff 9] - [01:25] - [01:42-----------------------------------------| - [2x]
- ------------------------------------------------------------------|
- ------------------------------------------------------------------|
- ------------------------------------------------------------------|
- -0-0-0-0-0-0-0-0-8-8-8-8-101010101212125-8-8-8-8-8-8-8-8-8-8-8-8--|
- -0-0-0-0-0-0-0-0-8-8-8-8-101010101212125-8-8-8-8-8-8-8-8-8-8-8-8--|
- -0-0-0-0-0-0-0-0-8-8-8-8-101010101212125-8-8-8-8-8-8-8-8-8-8-8-8--|

[Riff 10, Guitar 1 & 2] - [01:25] - [01:42]
- -------------------------------------------------------------------|
- -------------------------------------------------------------------|
- -/7-------7-7/10--9---------------------------9/12--10--9----------|
- -------10------------12--10-----12------10-12---------------12\10--|
- -------------------------------------------------------------------|
- -------------------------------------------------------------------|

- -------------------------------------------------------------------|
- -------------------------------------------------------------------|
- -10-7-----7-7/10--9---------------------------9/12-------10\5--9\7-|
- -------10------------12-----10-----12---10-12------15\10-x--x--x-x-|
- ---------------------------------------------------------8-\3--7\5-|
- -------------------------------------------------------------------|
-
- -------------------------------------------------------------------|
- -------------------------------------------------------------------|
- -14-10----10-10/14--12-----------------------12/15-------15---12---|
- --------14--------------15--14-----15---14-15------19\14----14--15-|
- -------------------------------------------------------------------|
- -------------------------------------------------------------------|

----------------------------------------------------------------------------

[Riff 11] - [01:42] - [02:07-----------------------------------------| - [3x]
- -------------------------------------------------------------------|
- -------------------------------------------------------------------|
- -7-7-7-7-7-7-7-7-7-7-7-7-7-7-7-7-14141412121214141515151414141212--|
- -x-x-x-x-x-x-x-x-x-x-x-x-x-x-x-x-x-x-x-x-x-x-x-x-x-x-x-x-x-x-x-x---|
- -5-5-5-5-5-5-5-5-5-5-5-5-5-5-5-5-12121210101012121313131212121010--|
- -------------------------------------------------------------------|

- ------------------------------------------------------------------|
- ------------------------------------------------------------------|
- -1414141414141414121212121212121212121212121212121010101014141414-|
- -x-x-x-x-x-x-x-x-x-x-x-x-x-x-x-x-x-x-x-x-x-x-x-x-x-x-x-x-x-x-x-x--|
- -1212121212121212101010101010101010101010101010108-8-8-8-12121212-|
- ------------------------------------------------------------------|

[Riff 9] - [01:50] - [02:07] - [2x]

----------------------------------------------------------------------------

[Riff 12, Guitar 1 & 2] - [02:07] - [02:24---------------------------| - [2x]
- -------------------------------------------------------------------|
- -------------------------------------------------------------------|
- -------------------------------------------------------------------|
- -------------------------------------------------------------------|
- -------------0-0-0-0---0-0-0-8-8-3---3-3---3-3-3-3-3-3---3-3-3-3---|
- -------------0-0-0-0---0-0-0-8-8-3---3-3---3-3-3-3-3-3---3-3-3-3---|
PM             ...................................................
-
- ------------------------------------------------------------------|
- -6-6-6-6-6-6-6-6-6-6-6-6-6----------------------------------------|
- -7-7-7-7-7-7-7-7-7-7-7-7-7-10101014141412121214141515151414141212-|
- -x-x-x-x-x-x-x-x-x-x-x-x-x-x-x-x-x-x-x-x-x-x-x-x-x-x-x-x-x-x-x-x--|
- -5-5-5-5-5-5-5-5-5-5-5-5-5-8-8-8-12121210101012121313131212121010-|
- ------------------------------------------------------------------|

- ------------------------------------------------------------------|
- ------------------------------------------------------------------|
- ------------------------------------------------------------------|
- -101010--10101010101010--10101010101010--101010101010101010101010-|
- -8-8-8---8-8-8-8-8-8-8---8-8-8-8-8-8-8---8-8-8-8-8-8-8-8-8-8-8-8--|
- -8-8-8---8-8-8-8-8-8-8---8-8-8-8-8-8-8---8-8-8-8-8-8-8-8-8-8-8-8--|
PM ................................................
-
- ------------------------------------------------------------------|
- ------------------------------------------------------------------|
- -1414141414141414121212121212121212121212121212121010101010101010-|
- -x-x-x-x-x-x-x-x-x-x-x-x-x-x-x-x-x-x-x-x-x-x-x-x-x-x-x-x-x-x-x-x--|
- -1212121212121212101010101010101010101010101010108-8-8-8-8-8-8-8--|
- ------------------------------------------------------------------|

----------------------------------------------------------------------------

[Riff 13, Guitar 1 & 2] - [02:24] - [02:27]
- -------------------------------------------------|
- -------------------------------------------------|
- -------------------------------------------------|
- -0~----------------------------------------------|
- -0~------------------------------000-000---------|
- -0~------------------------------000-000---------|
PM                                 .......
-
- -------------------------------------------------|
- -------------------------------------------------|
- -------------------------------------------------|
- -0~------------------------------0---------------|
- -0~------------------------------0-------000-000-|
- -0~------------------------------0-------000-000-|
PM                                         .......

----------------------------------------------------------------------------

[Riff 14] - [02:27] - [02:47]
- -----------------------------------------------------------------|
- -----------------------------------------------------------------|
- -----------------------------------------------------------------|
- -----------------------------------------------------------------|
- -000-000---------000-000-000-000-000-----000-000---------000-000-|
- -000-000---------000-000-000-000-000-----000-000---------000-000-|
PM ...............................................................

- -----------------------------------------------------------------|
- -----------------------------------------------------------------|
- -----------------------------------------------------------------|
- -----------------------------------------------------------------|
- -000-000---------000-000-000-000-000-----000-000-----000-0-0-0-0-|
- -000-000---------000-000-000-000-000-----000-000-----000-0-0-0-0-|
PM ...............................................................

- -----------------------------------------------------------------|
- -----------------------------------------------------------------|
- -----------------------------------------------------------------|
- -----------------------------------------------------------------|
- -000-000---------000-000-000-000-000-----000-000---------000-000-|
- -000-000---------000-000-000-000-000-----000-000---------000-000-|
PM ...............................................................

- -----------------------------------------------------------------|
- -----------------------------------------------------------------|
- -----------------------------------------------------------------|
- -----------------------------------------------------------------|
- -000-000---------000-000-000-000-000-----000-000-----000-0-0-0-0-|
- -000-000---------000-000-000-000-000-----000-000-----000-0-0-0-0-|
PM ...............................................................

- -----------------|
- -----------------|
- -----------------|
- -----------------|
- -000-000---------|
- -000-000---------|
PM .......

----------------------------------------------------------------------------

[Symbols]

PM... Palm Mute notes with (...) under them
h     Hammer On
p     Pull Off
/     Slide Up
\     Slide Down
x     Dead Note

:)

 

Love Dont Let Me Down Chords – Chris Young

Intro  C G Am F

[Chris]
C
 I've been a hard man
G
 Been a lonely man
Am                        F
 Been around the world and back again
C                      G
 My kind of freedom was always leavin'
Am                        F
 And I thought hearts were just for stealin'

C              G                      Am
 Then I saw the light in your eyes this morning
     F
 And somehow I knew
C
 I was gonna take a chance with you
G
 Try to see this through
Am
 So I'll be hopin you

[Both:]
F             C G Am
 Don't let me down
F                  C G Am
 Love don't let me down

[Patty]
Been on the bad side of a lotta goodbyes
Sometimes it felt like I was out of tears to cry
So for my own sake I put my heart away
Thought I'd try again on some sunny day

Then I saw the light in your eyes this morning
And somehow I knew
I was gonna take a chance with you
Try to see this through
So I'll be hopin you

[Both:]
Don't let me down
Love don't let me down

[Chris]
C            G              Am         F
 Lets make a promise we can believe in tonight
[Patty]
C             G              F        Am
 Give me your heart and I'll give you mine

Don't let me down
Love don't let me down

Love don't let me down

[Chris]
I've been a hard man
Been a lonely man
Been around the world
[Both]
Don't let me down

[Patty]
Been on the bad side of a lotta goodbyes

[Both]
Love don't let me down

No love don't let me down

 

Go Chords – Hillsong United

key: B
Intro: B 

Chorus 
B 
We're giving it all away, away 
B 
We're giving it all to go Your way 

Verse 1:  
B  
In the Father there is freedom  
B  
There is hope in the Name that is Jesus  
B  
Lay your life down give it all now  
B  
We are found in the love of the Saviour  

Pre-Chorus 
E           Abm  
We've come alive in You  
B           Abm
Set free to show the truth  
      E         Abm          F#  
Our lives will never be the same  

Chorus:  
 B  
We're giving it all away away  
                 E    Abm       E  
We're giving it all to go Your way  
 B  
We're giving it all away away  
                 E    Abm       E  
We're giving it all to go Your way  
(Away we're singing)

Verse 2:  
B
We are sold out to Your calling  
B
Everything that we are for Your glory  
B
Take our hearts now, have it all now  
B
Let our lives shine Your light like the morning  

Bridge:
C#m                  E       B          F#  
You rolled back the curtains from our eyes 

And now we can see You  
C#m                   E       B          F#  
You've shown us Your way Your truth and life  
C#m           E        B         F#  
We offer our lives to bring You fame  
                          E  
We're caught in Your freedom  
E                         C#m
We're caught in Your freedom  

Chorus

 

Simple Plan – Anywhere Else But Here Lyrics

I’m staring at the clock
I’m wondering why I’m still here
(Yeah)
And my head’s about to pop
Thinking that you best stay clear
(Yeah)

How did I get stuck
In this predicament I don’t know
I wanna throw this repetition
Out the window
I’m getting tired
Of wondering why I’m still here

And I wish that I could
(Snap my fingers)
Make myself disappear
(Snap my fingers)
Get myself outta here
(Snap my fingers)
(Snap my fingers)
Oh oh

I’d rather be anywhere else
Anywhere else
Anywhere else but here

I’d rather be anywhere else
Anywhere else
Anywhere else but here

I could be catching a wave
I could be seeing the world
I could be riding with the top down
Kissing my girl

I could be anywhere else
Anywhere else
Anywhere else but here

The sun is coming up
I wanna get out of there
Well, here we go again
I’m back to where I began

You can take my checkbook
Credit cards and keep ’em
I’d give them up just
For a little bit of freedom
And my escape
I’m planning it in my head

And I wish that I could
(Snap my fingers)
Make myself disappear
(Snap my fingers)
Get myself outta here
(Snap my fingers)
(Snap my fingers)
Oh oh

I’d rather be anywhere else
Anywhere else
Anywhere else but here

I’d rather be anywhere else
Anywhere else
Anywhere else but here

I could be sipping a drink
I could be getting a tan
I could be hanging on a beach
With my toes in the sand

I could be anywhere else
Anywhere else
Anywhere else but here

No more bus stops
Sitting in traffic
Waking up at 6 in the morning
It ain’t gonna happen

No more office
No more line-ups
You can just forget about it

We want freedom

We want, we want, we want
We want freedom

We want, we want, we want

I’d rather be anywhere else
Anywhere else
Anywhere else but here

I’d rather be anywhere else
Anywhere else
Anywhere else but here

I’d rather be anywhere else
Anywhere else
Anywhere else but here

I’d rather be anywhere else
Anywhere else
Anywhere else but here

I could be catching the wave
I could be seeing the world
I could be riding with the top-down
Kissing my girl

I could be sleeping in
I could be living it up
I could be sitting at home
Not giving a fuck

I could be anywhere else
Anywhere else
Anywhere else but here

I’d rather be anywhere else
Anywhere else
Anywhere else but here
Anywhere else but here
Anywhere else but here