Tag: front

A Front Seat To Hear Ole Johnny Sing chords – Shel Silverstein

 G 
Now you know some fellas they want fame and fortune

                                       D7 
Yeah and other fellas they just wanna swing

 G 
But all I wanted all my life

       C 
Was a TV set and a truck and a wife

       D7 G 
And a front row seat to hear ole Johnny sing


                     D7 G 
Yeah the TV and the truck I got on credit

                                                 D7 
And I got that girl with a little old Woolworth ring

     G 
And life was warm and life was sweet

     C 
But still it was kinda incomplete

           D7 G 
Without a front row seat to hear ole Johnny sing


     D7 
Hey John you walk the line do Delia one more time


And when you do them Cotton Fields you warm this heart of mine

  
    G D7 G 
So one day I thought hey I'm gonna do it (That's what I said)

                                                D7 
So I mortgaged the farm and pawned her wedding ring

   G 
I sold the gold tooth out of my mouth

     C 
And jumped in the pickup and headed south

       D7 G 
For a front row seat to hear ole Johnny sing



I hit Nashville cold and wet and hungry

                                             D7 
I said I'm here bring him on let him do his thing

          G 
But they told me down at the Old Pit Grill

             C 
I'd have to go all the way to Andersonville

       D7 G 
For a front row seat to hear ole Johnny sing


                   D7 G 
I found his house knocked on the door and it was opened

                                                   D7 
By a brown haired girl and a baby with a teethin' ring

   G 
I said I seen you somewhere before

           C 
But don't stand there and block the door

          D7 G 
I want a front row seat to hear ole Johnny sing


     D7 
Hey John you walk the line do Delia one more time


And when you do them Cotton Fields you warm this heart of mine


              
She said I'd have to go down to The Opry

                                                 D7 
And the feller there said I'd have to wait till spring

         G 
He said we've been sold out for months and months

          C 
And this poor insane fellah wants

   D7 G 
A front row seat to hear ole Johnny sing


               
Well he said a couple more things and I started cryin'

                                                        D7 
And then he laughed at me and that's when I started to swing

      G 
Well I bust through the doors in a roaring rage

 C 
Crawled over the crowd till I reached the stage

       D7 G 
For a front row seat to hear ole Johnny sing


     D7 
Hey John you walk the line do Delia one more time


And when you do them Cotton Fields you warm this heart of mine



Then some crazy guard started shootin'

                                             D7 
I shot back and the next thing I know I was winged and on the floor

        G 
When a guy in a voice kinda deep and low

      C 
Says boy that's a mighty long way to go

       D7 G 
For a front row seat to hear anybody sing



And I guess that judge he weren't no music lover

                                            D7 
I got fifteen months but that don't mean a thing

       G 
Cause yesterday in the prison yard

   C 
A show come through and har de har

         D7 <sp

Fuck Jobs The Plan Tabs – The Front Bottoms

 Piano riff
E|-----------------------------------------------------------------------
B|--------------8-----------------------------------8-----8--8-----------
G|--5--5--7--9-----9--5--7--9--7--9-----5--5--7--9-----9--------9--7--5--
D|-----------------------------------------------------------------------
A|-----------------------------------------------------------------------
E|-----------------------------------------------------------------------

Guitar riffs
E|-----------------------------------------------------------------------------
B|-----------------------------------------------------------------------------
G|--9--9--7--7--5--5--------5--7--9--------9--9--7--7--5--5--------------------
D|--------------------7--7-----------7-----------------------7--7--10--12--14--
A|-----------------------------------------------------------------------------
E|-----------------------------------------------------------------------------


E|-----------------------------------------------------------------------------------------------------------
B|--8--8--8--6--6--5--5-----------------------8--8--8--6--6--5--5--12--12--12--8--8--8--8--6--6--6--5--5--5--
G|-----------------------7-----5--7--9-----------------------------------------------------------------------
D|--------------------------7-----------7--------------------------------------------------------------------
A|-----------------------------------------------------------------------------------------------------------
E|-----------------------------------------------------------------------------------------------------------

The Eliminator Tabs – Agnostic Front

 intro

--------------------------------------------------
--------------------------------------------------
--------------------------------------------------
--7-----------------------------------------------
--7-whammy-bar------------------------------------
--5-----------------------------------------------


--------------------------------------------------
--------------------------------------------------
---------------------10-----------------------12--
--7----------10\9/10-10----7----------10\9/10-12--
--7----------10\9/10-8-----7----------10\9/10-10--
--555555555 -8-\7/8--------555555555--8-\7/8------

Chorus

-----------------------------------------------------------
-----------------------------------------------------------
--9--10--7\5/7 -9--10--12/13\12--9--10--7\5/7--9-----------
--9--10--7\5/7--9--10--12/13\12--9--10--7\5/7--9--5-5-5-5--
--7--8---5\3/5--7--8---10/11\10--7--8---5\3/5--7--5-5-5-5--
--------------------------------------------------3-3-3-3--

Pre Solo 

-----------------------------------------------------
-----------------------------------------------------
-----------------------------------------------------
-9-7---7-5---7-5-4h5p4-------------------------------
-----9-----9---------------7-5---5-3-2h3p2-----------
-------------------------------7---------------------


On the solo

--------------------------------------------------
--------------------------------------------------
-----------------------10---9---10----------------
-------7-------9-------10---9---10----------------
-------7-------9-------8----7---8-----------------
-0-0-0-5-0-0-0-7-0-0-0----0---0-------------------

In Front Of Me Tabs – Three Days Grace

 -------------------------------------------------------------------------------
                           Three Days Grace - In Front of Me
-------------------------------------------------------------------------------
: Diesel
 daughtryfan497

Tuning: Drop C ( C - G - C - F - A - D)

Artist: Three Days Grace
 Three Days Grace EP
Year: 2000


                          Intro and Verse

e|------------------------------------------------------------------------------|
B|------------------3-----------------------------------------------------------|
G|------------------0-----------------------------------------------------------|
D|-2--2--0----------x-----------------------------------------------------------|
A|-2--2--0--x3-0-0--3-----------------------------------------------------------|
E|-2--2--0-----0-0--------------------------------------------------------------|
   *  *        * *

                           Verse

e|------------------------------------------------------------------------------|
B|------------------------------------------------------------------------------|
G|------------------------------------------------------------------------------|
D|---999-10-999-12--999-10-9----------------------------------------------------|
A|---999-10-999-12--999-10-9--x4------------------------------------------------|
E|---999-10-999-12--999-10-9----------------------------------------------------|

                               Chorus

e|-----------------------------------------------------------------------------|
B|-----------------------------------------------------------------------------|
G|------9--5-------------------------------------------------------------------|
D|------9--5--5---7------------------------------------------------------------|
A|------7--3--5---7--x4--------------------------------------------------------|
E|------------5---7------------------------------------------------------------|


                                   Interlude

e|-----------------------------------------------------------------------------|
B|-12~----------12~-----------12~------------12~-------------------------------|
G|-12~-9---15---12~-9---------12~--9---15----12~-9-----------------------------|
D|-----x----x-------x--12---7------x---x---------x-----------------------------|
A|-----7---13-------7--12---7------7---13--------7-----------------------------|
E|---------------------12---7--------------------------------------------------|

Verse
Pre Chorus
Chorus
Verse
Pre Chorus
Chorus
Interlude
Pre Chorus (PM)
Chorus
Pre Chorus

************************************

| /   slide up
| \   slide down
| h   hammer-on
| p   pull-off
| ~   vibrato
| +   harmonic
| x   Mute note
| b   Bend
| pb  Pre-bend
| br  Bend release
| pbr Pre-bend release
| brb Bend release bend

************************************

West Virginiam*â�The Front Bottoms V3

 Song: West Virginia
Artist: The Front Bottoms

Tuning: Standard

Chords:
G:      3-5-5-x-x-x
C:      x-3-5-5-x-x
E:      0-2-2-x-x-x
C/B:    x-2-5-x-x-x
A:      x-0-2-2-x-x
D:      x-5-7-7-x-x
E*:     x-7-9-9-x-x
G*:      x-10-12-12-x-x

Intro:
 G    |  C E  |  [x2]

        G 
“Is it raining where you are?”
          C E 
The only thing I could think to ask
             G G 
But nothing ever hurt so bad
         C E 
As the “no” that you said back


                     C/B A 
But ain't that the truth, man?
           C G 
Those are just facts
                 C/B A 
The farther you go from where you start
               C G 
The harder it is to get back


Chorus:
         C D 
Love of my life
     G*     E*
Gone forever
         C D 
Love of my life
          G 
Gone for good
 G 
This is for all my friends in West Virginia


Riff:
 G C E C  [x4]


     G C E C 
The good stuff comes, the good stuff goes
     G C E C 
The good stuff seems so hard to hold
     G C E C 
Hope it slides slowly down your throat
        G C E 
So the taste of it may linger

       G C E C 
Right now I'm just a volcano (like I said!)
 G C E C      
On the brink of eruption (like I said!)
      G C E C 
Right now I'm just a psycho
      G 
Hell bent on self-destruction
      E C 
Hell bent on self-destruction
      G 
Hell bent on self-destruction
      E C 
Hell bent on self-destruction


Chorus:
         C D 
Love of my life
     G*       E*
Gone forever
         C D 
Love of my life
          G 
Gone for good


Riff:
 G C E C  [x4]


   G C E C 
I wish I may I wish I might
     G C 
One day live life
        E C 
Like a person in paradise

       G C E C 
Right now I'm just a volcano (like I said!)
 G C E C      
On the brink of eruption (like I said!)
     G C E C 
Right now I'm just a psycho
      G 
Hell bent on self-destruction
      E C 
Hell bent on self-destruction
      G 
Hell bent on self-destruction
      E C 
Hell bent on self-destruction


Bridge:
    E G 
Ride or die
   C D 
Brothers for life
  C D 
Darkest days
  E*  G*
Coldest nights
[x2]

   G C D C D 
There ain't no doctor on Earth
(D)            E*      G*
There ain't no lord up above
 G C D C D 
Who knows a strong enough medicine
(D)      E*        G*
Or a life-saving love


Solo:
 C/B A C G  [x2]


(G)                      C/B A 
Like I said I thought I was focused
                    C G 
I thought I had it figured out
          <s

Heaven Sent chords – Front Porch Step

 D A Bm G 
I heard your name the other day
 D A G Bm G 
And I got sick in the most wonderful of ways
 D Bm G 
I thought about the days we laughed about our past
 D A Bm D G 
And now you’re stuck there like the time I can’t get back


 D A Bm G D A Bm G 
I said some things that I don’t mean
 D A Bm G 
When I said I hate you I was lying through my teeth
      D A Bm D G 
And when you grabbed your bags and walked out of my door
 D A Em D G 
I lost the love, that couldn’t love me anymore

 A Bm A Bm 
I miss your smile the way we kiss 
 E    
Who knew that hell could come from something heaven sent


 D A Bm G  x2

 D A Bm G 
I heard your voice inside my head
 D A Bm D G 
I drank all night so i could drown you out of it
 D Bm G 
I woke up in my car but I couldn’t drive away
           D A Bm G 
I just couldn’t bring myself to leave the girl that couldn’t stay


 F#m Bm D G Bm 
I miss your smile   the way we kiss
 Em                                                    
Who knew that hell could come from something heaven sent


 D A Bm G  x2

 D A                
Whether I was right or I was wrong
 Bm G 
Or which of us hung up the phone
 D A 
I just had to write this song
 Bm G 
So I could just feel less alone x2


 D A Bm G D A Bm G 
I saw your name the other day
 D A Bm Em G 
I cried myself to sleep and crumbled from the pain
     D A Bm G     
And i couldn’t believe what your daddy asked of me
     D F#m Bm G 
I never thought id live to give your eulogy

Poison chords – Front Porch Step V2

 : Jim BlenderBR
 - Give your rating and help others users to find the best versions of the songs - 



 Asus2 Cadd9 G D 
They say the heart only wants what it can't have, 

 Asus2 Cadd9 G D 
so i guess your hand, in mine, will never fit. 

 Asus2 Cadd9 G D 
'cause if i could find my heart inside this empty, frozen, chest, 

 Asus2 Cadd9 G D 
Then you would find that i'd give you all of it. 



Asus2, Cadd9, G, D    x2



 Asus2 Cadd9 G D 
you stole the matches from my book. 

 Asus2 Cadd9 G D 
put out the fire in my eyes. 

 Asus2 Cadd9 G D 
you cause a thunder in my veins when you're around. 

 Asus2 Cadd9 G D 
you make me wish that i would die. 



Chorus



 Cadd9 G D  
and I can't hear you calling out my name, 

 Cadd9 G D 
but i still feel your breath across my neck, driving me insane

 Cadd9 G D 
But you don't love me, so how do you explain? 

 Cadd9 G D Cadd9 G 
you walk away from my life when you live inside my brain 

 D Cadd9 G D 
You live inside my brain



Verse 2



 Asus2 Cadd9 G D 
I thought you came to kiss my lips, 

 Asus2 Cadd9 G D 
but you brought your shovel and your tarp. 

 Asus2 Cadd9 G D 
The voice that once became the light unto my dark, 

 Asus2 Cadd9 G D 
soon became your tool to break my heart. 



Chorus



 Cadd9 G D  
and I can't hear you calling out my name, 

 Cadd9 G D 
but i still feel your breath across my neck, driving me insane

 Cadd9 G D 
But you don't love me, so how do you explain? 

 Cadd9 G D Cadd9 G 
you walk away from my life when you live inside my brain 

 D Cadd9 G D 
You live inside my brain



Bridge



 Cadd9 G D 
Eat my heart for breakfast. 

 Cadd9 G D 
Taste it's tainted blood. 

 Cadd9 G Em7 
Feel your precious poison start to fill it's makers veins 

        Cadd9 D G 
so you can start to feel your so called love.



Chorus



 Cadd9 G D  
and I can't hear you calling out my name, 

 Cadd9 G D 
but i still feel your breath across my neck, driving me insane

 Cadd9 G D 
But you don't love me, so how do you explain? 

 Cadd9 G D Cadd9 G 
you walk away from my life when you live inside my brain 

 D Cadd9 G D 
You live inside my brain

Front 2 Back Tabs by Xzibit

 -------------------------------------------------------------------------------
                                                     Front 2 Back - Xzibit
-------------------------------------------------------------------------------
 Restless
Year: 2000
: Istarii
 istariimusic@hotmail.com

Tuning: Standard

 Fig. 1 (higher pitched strings) End Fig. 1

e|---------------------------------------------------------|
B|---------------------------------------------------------|
G|---------------------------------------------------------|
D|-18--16--13----13------------18--16--13----13------------|
A|-16--14--11----11--16--14----16--14--11----11--16--14----|
E|-------------------14--12----------------------14--12----|


 Fig. 3                             End Fig. 3

e|-------------------------------------------|
B|-------------------------------------------|
G|---------11h13-11\9------------------------|
D|-------------------------------------------|
A|-------------------------------------------|
E|-------------------------------------------|


     h = hammer on
Fig. 1 = Intro/Verse/Chorus (play whenever the high strings kick in)
Fig. 2 = Flourish on the synth

Everything I Own chords – The Front Bottoms

 intro is | F# Db Abm B |
and in the verse each note doubles in length so its |F Db | Abm B|

                   F# Db 
Sometimes you get sad when we're together
                        Abm B 
Because you're not sure if you'll miss me when I'm gone
                     F# Db             
Just try to appreciate what you got while you got it
           Abm B 
So if it ever goes away, you can say you enjoyed it while it lasted
                   Abm Db  
Sometimes I don't feel like singing, I don't really like these songs
                   Abm Db B 
Sometimes I don't feel like dancing, DJ please don't turn the beat on
              Ebm Db F# B 
Let's keep it quiet, keep me honest, and keep me true (ooh ooh ohh)
                   Ebm Db F# B 
Keep me in love; keep me believing it's with you  (ooh ooh ohh, ooh ooh ohh
        Db        
ooh ohh ohh, ooh ooh ohh)

       F# B Abm Db     
But who's gonna push my wheelchair around when I get sick?
          F# B Abm Db     
God forbid I ever stop feeling sorry for myself, for being selfish
          F# B Abm Db     
This is not the way I plan on living for the rest of my life
          F# B Abm Db     
But for right now, it gets me by, it gets me by

 F# B Abm Db 

F# riff, two measures

 F# Db Abm B F#  
It's reached the point in the night where I need to decide
                      Db 
Whether I'm gonna fall asleep or watch the sunrise
          Abm 
We are both into letting this develop
             B 
But the thought of starting over always sounded much better
         F# 
But I won't stop this, and you won't stop this
        Db 
It'll probably go further than either of us wants it
      Abm 
It all comes down to the fact that I don't care to
                 B 
Sacrifice a good time 'cause someone says I have to
                 Abm Db 
Next thing I know, I am removing all my clothes
                   Abm Db B 
And you are dancing around the room to some song on the radio
                Ebm Db F# B 
You say I deserve it, what is coming, the good and the bad bad, bad bad
           Ebm Db F#                
I don't regret it, how could i? You were the best I ever had
 B Db                           
I ever had, I ever had, I ever had, I ever

       F# B Abm Db     
But who's gonna push my wheelchair around when I get sick?
          F# B Abm Db     
God forbid I ever stop feeling sorry for myself, for being selfish
          F# B Abm Db     
This is not the way I plan on living for the rest of my life
          F# B Abm Db     
But for right now, it gets me by, it gets me by

Angles And Demons chords – Front Porch Step

 Hey, first ever chord/tab or whatev. Im sure there are mistakes, I'll get to em asap. 
Great song. Enjoy. And Correct me.

I dont know what its called.

 D2 : xx0233


Capo: 3
 Em 
You've got two eyes that took me by surprise when you walked by.
              C 
I think that I could die a thousand deaths and still turn out just fine,
             Am Em 
If I could just see your face every day of my life

Well I see you're sad but we're both sad, and I see you cry and it makes me mad.
 C 
I see the good in all your bad. Lets take this shitty life we have
 Am Em D D2 
And throw it down the drain and run away. Just you & I

 Em G Am C 
Well love don’t tell us what to do.
 Em G Am C 
It only shows us what we need.
 Em G Am C 
And whenever I'm alone with you,
 Em G Am C 
I know I'm where I want to be

 Em 
You're the angel that gives me reason but I can't begin to count my demons.
 C 
Somehow you still keep me dreamin'. You let me know my life has meaning.
 Am 
I’ll find that boy that left you bleeding. Whispered "love" and you believed him.
 C 
I begged and begged for you to leave him. I swear I'll kill 'em when I see him.

 Em 
I love you more than words can say but I can’t take your breath away,
 C 
Or be the prince that saves the day, 'cause I'll rub your feet, but I’m not your slave.
 Am C D D2 
I thought that you should know that I'll forever love you so.

 Em G Am C 
Well love don’t tell us what to do.
 Em G Am C 
It only shows us what we need.
 Em G Am C 
And whenever I'm alone with you,
 Em G Am C 
I know I'm where I want to be

 Em 
God cuffed the devil 'cause he had my soul.
Cut off his hands and claimed he stole.
 C Em 
The devil sat there bleeding and crying, all confused.

'Cause when I signed that paper to give him his share.
Me and Mr. Lucifer were both unaware
          C D D2 D 
That the soul that I sold him had long belonged to you.

(Single strums if you're really feelin it)

 Em G Am C 
And love don't tell us what to do.
 Em G Am C 
It only shows us what we need.
 Em G Am C 
And whenever I'm alone with you,
 Em G Am C Em 
I know I'm where I want to be

Hooped Earings Tabs by The Front Bottoms V2

 Guitar comes in at around 0:27

E---------------------------------|
B---------------------------------|
G---------------------------------| X2
D-----------------77777777--------|
A-44444444222222225555555577777777|
E-2222222200000000--------55555555|

'Come on give me a break...'
E---------------------------------|
B---------------------------------|
G---------------------------------| X4
D-----------------77777777--------|
A-44444444222222225555555577777777|
E-2222222200000000--------55555555|


'And you have gotta do this now...'
E---------------------------------|
B---------------------------------|
G---------------------------------| X2
D-55555555------------------------|
A-33333333222222223333333355555555|
E---------000000001111111133333333|


Interlude
E---------------------------------|
B---------------------------------|
G---------------------------------| X2
D-----------------77777777--------|
A-44444444222222225555555577777777|
E-2222222200000000--------55555555|

'You've got a rash on your neck just below the line...'
E---------------------------------|
B---------------------------------|
G---------------------------------| X3
D-----------------77777777--------|
A-44444444222222225555555577777777|
E-2222222200000000--------55555555|


'And you have gotta do this now...'
E---------------------------------|
B---------------------------------|
G---------------------------------| X4
D-55555555------------------------|
A-33333333222222223333333355555555|
E---------000000001111111133333333|


Bridge
E-----------------------------------------------------------------|
B-----------------------------------------------------------------|
G-----------------------------------------------------------------| X2
D-22222222222222225555555555555555--------------------------------|
A-0000000000000000333333333333333322222222222222222222222222222222|
E---------------------------------00000000000000000000000000000000|

'Oh, ah, oh, ah...'
E-----------------------------------------------------------------|
B-----------------------------------------------------------------|
G-----------------------------------------------------------------| X2
D-22222222222222225555555555555555--------------------------------|
A-0000000000000000333333333333333322222222222222222222222222222222|
E---------------------------------00000000000000000000000000000000|


'So, you have gotta do this now...'
E---------------------------------|
B---------------------------------|
G---------------------------------| X4
D-55555555------------------------|
A-33333333222222223333333355555555|
E---------000000001111111133333333|

Legit Tattoo Gun Tabs by The Front Bottoms V4

 Intro
E----------------------------------|
B----------------------------------|
G----------------------------------| X2
D--0-0-0-0-0-0-0-0-0-0-0--0-0-0-0-0|
A-2-2-2-4-5-5-5-5-9-9-9-12-7-7-7-7-|
E----------------------------------|

'My head has thoughts...'
E----------------------------------|
B----------------------------------|
G----------------------------------| X5
D--0-0-0-0-0-0-0-0-0-0-0--0-0-0-0-0|
A-2-2-2-4-5-5-5-5-9-9-9-12-7-7-7-7-|
E----------------------------------|

E----------------------------------|
B----------------------------------|
G----------------------------------|
D--0-0-0--0-0-0-0-0-0-0-0-0-0-0-0-0|
A-5-5-5-10-9-9-9-9-3-3-3-3-2-2-2-2-|
E----------------------------------|


'I am not a dirty god...'
E---------------------------------|
B---------------------------------|
G---------------------------------| X4
D-----------------77777777--------|
A-55555555555555555555555577777777|
E-3333333333333333--------55555555|


Interlude
E----------------------------------|
B----------------------------------|
G----------------------------------| X2
D--0-0-0-0-0-0-0-0-0-0-0--0-0-0-0-0|
A-2-2-2-4-5-5-5-5-9-9-9-12-7-7-7-7-|
E----------------------------------|

'Who did I think I was...'
E----------------------------------|
B----------------------------------|
G----------------------------------| X3
D--0-0-0-0-0-0-0-0-0-0-0--0-0-0-0-0|
A-2-2-2-4-5-5-5-5-9-9-9-12-7-7-7-7-|
E----------------------------------|

E----------------------------------|
B----------------------------------|
G----------------------------------|
D--0-0-0--0-0-0-0-0-0-0-0-0-0-0-0-0|
A-5-5-5-10-9-9-9-9-3-3-3-3-2-2-2-2-|
E----------------------------------|


Bridge (piano part tabbed for guitar)
E---------------------------------|
B---------------------------------|
G---------------------------------| X2
D-7~~~9~~~~~~~~~~~5~~~~~~~~~~~~~~~|
A-5~~~7~~~~~~~~~~~3~~~~~~~~~~~~~~~|
E---------------------------------|

'I am the water...'
E---------------------------------|
B---------------------------------|
G---------------------------------| X3
D-7~~~9~~~~~~~~~~~5~~~~~~~~~~~~~~~|
A-5~~~7~~~~~~~~~~~3~~~~~~~~~~~~~~~|
E---------------------------------|

'But it still won't move...'
E---------------------------------|
B---------------------------------|
G---------------------------------| X2
D---------55555555----------------|
A-77777777333333332222222222222222|
E-55555555--------0000000000000000|


'But, I am not a dirty god...'
E---------------------------------|
B---------------------------------|
G---------------------------------| X2
D-----------------77777777--------|
A-55555555555555555555555577777777|
E-3333333333333333--------55555555|


Bridge
E---------------------------------|
B---------------------------------|
G---------------------------------| X2
D---------------------------------|
A-22222222222222227777777777777777|
E-00000000000000005555555555555555|

'Keep my body alive...'
E---------------------------------|
B---------------------------------|
G---------------------------------| X2
D---------------------------------|
A-22222222222222227777777777777777|
E-00000000000000005555555555555555|


'But, I am not a dirty god...'
E---------------------------------|
B---------------------------------|
G---------------------------------| X4
D-----------------77777777--------|
A-55555555555555555555555577777777|
E-3333333333333333--------55555555|

Swimming Pool Tabs by The Front Bottoms V2

 'There's comfort in the bottom of a swimming pool...'
E-------------------------------------|
B-------------------------------------|
G-------------------------------------|
D-------------------------------------|
A--11-11-11-11-7-7-9-9-7-7-7-7-7-7-7-7|
E-9--9--0--0--5-5-7-7-4-4-4-4-5-5-5-5-|

'There's no doubt in my mind...'
E-----------------------------------------------------|
B-----------------------------------------------------|
G-----------------------------------------------------|
D-----------------------------------------------------|
A--11-11-11-11-7-7-9-9-7-7-7-7-7-7-7-7-7-7-7-7-7-7-7-7|
E-9--9--0--0--5-5-7-7-4-4-4-4-4-4-4-4-5-5-5-5-5-5-5-5-|

E---------------------|
B---------------------|
G---------------------| X2
D---------------------|
A--11-11-11-11-7-7-9-9|
E-9--9--0--0--5-5-7-7-|

'There's comfort in the bottom of a swimming pool...'
E-------------------------------------|
B-------------------------------------|
G-------------------------------------|
D-------------------------------------|
A--11-11-11-11-7-7-9-9-7-7-7-7-7-7-7-7|
E-9--9--0--0--5-5-7-7-4-4-4-4-5-5-5-5-|

'There's no doubt in my mind...'
E-----------------------------------------------------|
B-----------------------------------------------------|
G-----------------------------------------------------|
D-----------------------------------------------------|
A--11-11-11-11-7-7-9-9-7-7-7-7-7-7-7-7-7-7-7-7-7-7-7-7|
E-9--9--0--0--5-5-7-7-4-4-4-4-4-4-4-4-5-5-5-5-5-5-5-5-|


'I'm a creature of a culture that I create...'
E---------------------------------|
B---------------------------------|
G---------------------------------| X2
D---------------------------------|
A--4-4-4-4-6-6-7-7-2-2-2-2-2-2-2-2|
E-2-2-2-2-4-4-5-5-0-0-0-0-0-0-0-0-|

'And I am permanently...'
E---------------------------------|
B---------------------------------|
G---------------------------------| X2
D---------------------------------|
A-44444444666677772222222222222222|
E-22222222444455550000000000000000|


E---------------------|
B---------------------|
G---------------------| X2
D---------------------|
A--11-11-11-11-7-7-9-9|
E-9--9--0--0--5-5-7-7-|

Guitar fades out then comes back at around 1:38

'Follow an orange extention chord...'
E-------------------------------------|
B-------------------------------------|
G-------------------------------------|
D-------------------------------------|
A--11-11-11-11-7-7-9-9-7-7-7-7-7-7-7-7|
E-9--9--0--0--5-5-7-7-4-4-4-4-5-5-5-5-|

'Feeding the black light...'
E-----------------------------------------------------|
B-----------------------------------------------------|
G-----------------------------------------------------|
D-----------------------------------------------------|
A--11-11-11-11-7-7-9-9-7-7-7-7-7-7-7-7-7-7-7-7-7-7-7-7|
E-9--9--0--0--5-5-7-7-4-4-4-4-4-4-4-4-5-5-5-5-5-5-5-5-|


'But I'm a creature of a culture that I create...'
E---------------------------------|
B---------------------------------|
G---------------------------------| X2
D---------------------------------|
A--4-4-4-4-6-6-7-7-2-2-2-2-2-2-2-2|
E-2-2-2-2-4-4-5-5-0-0-0-0-0-0-0-0-|

'And I am permanently...'
E---------------------------------|
B---------------------------------|
G---------------------------------| X2
D---------------------------------|
A-44444444666677772222222222222222|
E-22222222444455550000000000000000|


Bridge
E-----------------|
B-----------------|
G-----------------| X2
D--6-6-6-6-6-6-2-2|
A-7-7-6-6-4-4-0-0-|
E-----------------|

'How low is your self-esteem...'
E-----------------|
B-----------------|
G-----------------| X3
D--6-6-6-6-6-6-2-2|
A-7-7-6-6-4-4-0-0-|
E-----------------|

E-----------------|
B-----------------|
G-----------------|
D-2222444466667777|
A-0000000000000000|
E-----------------|

'I will stop cutting my pants into shorts...'
E-----------------|
B-----------------|
G----------------

Bathtub Tabs by The Front Bottoms

 'I am washing my hair with soap...'
E-----------------|
B-----------------|
G-----------------| X4
D--5-5-5-5-3-3-3-3|
A-3-3-0-0-1-1-1-1-|
E-----------------|

'Still I scrub and scrub...'
E---------------------------------|
B---------------------------------|
G---------------------------------| X2
D--3-3-3-3-3-3-3-3-3-3-3-3-3-3-3-3|
A---------0-0-0-0-1-1-1-1-3-3-3-3-|
E-1-1-1-1-------------------------|

'Relax my muscles'
E-----------------|
B-----------------|
G-----------------|
D-----------------|
A-3333333333333333|
E-1111111111111111|


'All of the sudden I am scared...'
E---------------------------------------------------------------------|
B---------------------------------------------------------------------|
G---------------------------------------------------------------------|
D------------------------------------------------------------3--------|
A-----------------33333333333333338888888810101010888811111111--------|
E-1111111111111111----------------------------------------------------|


'She says can you feel that...'
E---------------------------------------------------------------------------------|
B---------------------------------------------------------------------------------|
G---------------------------------------------------------------------------------|
D-----------------5555555555555555101010101010101010101010101010103333333333333333|
A-333333333333333333333333333333338-8-8-8-8-8-8-8-8-8-8-8-8-8-8-8-1111111111111111|
E-1111111111111111----------------------------------------------------------------|

'And I am washing my hair with soap...'
E-------------------------------------------------------------------------|
B-------------------------------------------------------------------------|
G-------------------------------------------------------------------------|
D-55553333--------55553333--------555-33----------55553333----------------|
A-33331111333333333333111133333333333-11--33333333333311113333333333333333|
E---------11111111--------11111111--------11111111--------1111111111111111|


'But, there is air inside of my lungs...'
E-----------------|
B-----------------|
G-----------------| X4
D--5-5-5-5-3-3-3-3|
A-3-3-0-0-1-1-1-1-|
E-----------------|

'So, I will run and run maybe...'
E---------------------------------|
B---------------------------------|
G---------------------------------| X2
D--3-3-3-3-3-3-3-3-3-3-3-3-3-3-3-3|
A---------0-0-0-0-1-1-1-1-3-3-3-3-|
E-1-1-1-1-------------------------|

'Relax all the muscles in my face'
E-----------------|
B-----------------|
G-----------------|
D-----------------|
A-3333333333333333|
E-1111111111111111|


'All of the sudden I am scared...'
E---------------------------------------------------------------------|
B---------------------------------------------------------------------|
G---------------------------------------------------------------------|
D------------------------------------------------------------3--------|
A-----------------33333333333333338888888810101010888811111111--------|
E-1111111111111111----------------------------------------------------|


'She says can you feel that...'
E---------------------------------------------------------------------------------|
B---------------------------------------------------------------------------------|
G---------------------------------------------------------------------------------|
D-----------------5555555555555555101010101010101010101010101010103333333333333333|
A-333333333333333333333333333333338-8-8-8-8-8-8-8-8-8-8-8-8-8-8-8-1111111111111111|
E-1111111111111111----------------------------------------------------------------|

'And I am washing my hair with soap...'
E-----------------------------------------------------------------|
B-----------------------------------------------------------------|
G-----------------------------------------------------------------|
D-55553333----

Backflip chords – The Front Bottoms

 B E F# B E F# 
I don't see me mad at situations,
         B E F# 
I see me turn and walk away
         B E F# 
I see a tattoo on my right thigh that I will 
 B E (hi)
probably regret one day
              B E (hi)
Yeah, I will probably regret one day
              
               B E F# 
But now, I am happy to be bonding in a
 B E F# 
kitchen with my friends
            B E F# 
A spool of thread, a few more good vibes,
          B E (hi)
A safety pin and a ballpoint pen
          B E (hi)
A safety pin and a ballpoint pen
          B E (hi)
A safety pin and a ballpoint pen

And a ballpoint pen

           E 
But there are answers here,
              B F# 
They're just harder to figure out
                E E F# 
Since all your questions got harder to dodge and dip around
              E B  
And there is nothing wrong with my lifestyle
           F# Abm 
No matter how many times I tell myself to 
         E 
breathe in,

hold it, 
 B 
hold it,
            F# 
now let it out...

(stop)
      ...now let it out

 B E F#  x2

                B E F#                
One day I will realize I don't need this
               B E F# 
because it is just not who I am
            B E F# 
Until that day comes, I'll keep my eyes closed,
            B E (hi)
and I will try to feel all of the effects
              B E (hi)
Yeah, I will try to feel all of the effects
              B E F# 
And now I am talking way too fast
              B E F# 
a little bit louder than I should,
               B E F#          
Trying to say thank you for understanding 
                B E F# 
my side of the story the best that you could
                B E (hi)
My side of the story the best that you could
                B E (hi)
My side of the story the best that you could

oH, the best that you could

           E 
But there are answers here,
              B F# 
They're just harder to figure out
                E E F# 
Since all your questions got harder to dodge and dip around
              E B  
And there is nothing    wrong with my lifestyle
           F# Abm 
No matter how many times I tell myself to 
         E 
breathe in,

hold it, 
 B 
hold it,
            F# 
now let it out...


 Ex|x7xxxx|
C#x|9xxxxx|
 Bx|7xxxxx|
F#x|x9xxxx|

                    Ex             C#                    Bx                       F#x
And this is how the cool boyfriend sits in the passenger seat of his girlfriend's car
                 E C# B F# 
He's lookin' at me, I wish the light would turn green, set me free, oh set me free, oh set me
 E C# B F# 
Teach my rolling veins where there's a will, there is a way
             E

If I Tremble Tabs by Front Porch Step V2

 Front Porch Step - If I Tremble
Standard Tuning
Capo can be used (1st fret)



Intro & Verse
E|----------------------------------------------------------------| x4
B|----------------------------------------------------------------|
G|----------------------------------------------------------------|
D|----------------------------------------------------------------|
A|-------------------------------------------------9-9-9-9-8-8-8--|
E|9-9-9-9-9-9-9-9-8-8-8-8-8-8-8-8-6-6-6-6-6-6-6-6-6---------------|


Chorus (power chords)
E|------------------------------------------------------------------|
B|------------------------------------------------------------------|
G|------------------------------------------------------------------|
D|11-11-11-11-11-11-11-11-10-10-10-10-10-10-10-10-8-8-8-8-8-8-8-8-8-|
A|11-11-11-11-11-11-11-11-10-10-10-10-10-10-10-10-8-8-8-8-8-8-8-8-8-|
E|9--9--9--9--9--9--9--9--8--8--8--8--8--8--8--8--6-6-6-6-6-6-6-6-6-|


E|-----------------------------------------------------------------| x4
B|-----------------------------------------------------------------|
G|11-11-11-11-10-10-10---------------------------------------------|
D|11-11-11-11-10-10-10---------------------------------------------|
A|9--9--9--9--8--8--8----------------------------------------------|
E|-----------------------------------------------------------------|


Chorus (chords)

Cm  C  Am  Fm  F                                                    x4



Bridge is the same as Verse



 Tom (t0mw)

The Boredom Is The Reason I Started Swimming Its Also The Reason I Started Sinking Tabs by The Front Bottoms

 Intro
E---------|
B---------|
G---------| X6
D-22222222|
A-00000000|
E---------|

'Foreign countries...'
E-----------------------------------------------------------------|
B-----------------------------------------------------------------|
G-----------------------------------------------------------------| X2
D-2222222222222222999999999999999977777777777777779999999977777777|
A-0000000000000000777777777777777755555555555555557777777755555555|
E-----------------------------------------------------------------|


'And I am not sure that I want...'
E-----------------|
B-----------------|
G-----------------| X3
D-----------------|
A-7777999955555555|
E-5555777733333333|

E-----------------|
B-----------------|
G-----------------|
D-7777777777777777|
A-5555555555555555|
E-----------------|


'Cause everybody pays...'
E-----------------------------------------------------------------|
B-----------------------------------------------------------------|
G-----------------------------------------------------------------| X2
D---------------------------------77777777444444447777777744444444|
A-4~~-22~-77~-22224~~-22~-77~-999955555555222222225555555522222222|
E-2~~-00~-55~-00002~~-00~-55~-7777--------------------------------|


'Keep it simple and honest...'
E-----------------------------------------------------------------|
B-----------------------------------------------------------------|
G-----------------------------------------------------------------| X2
D-2222222222222222999999999999999977777777777777779999999977777777|
A-0000000000000000777777777777777755555555555555557777777755555555|
E-----------------------------------------------------------------|


'And I am not sure that I want...'
E-----------------|
B-----------------|
G-----------------| X3
D-----------------|
A-7777999955555555|
E-5555777733333333|

E-----------------|
B-----------------|
G-----------------|
D-7777777777777777|
A-5555555555555555|
E-----------------|


'Cause everybody pays...'
E-----------------------------------------------------------------|
B-----------------------------------------------------------------|
G-----------------------------------------------------------------| X2
D---------------------------------77777777444444447777777744444444|
A-4~~-22~-77~-22224~~-22~-77~-999955555555222222225555555522222222|
E-2~~-00~-55~-00002~~-00~-55~-7777--------------------------------|

'You're not even sleeping...'
E---------------------------------|
B---------------------------------|
G---------------------------------|
D-77777777444444447777777744444444|
A-55555555222222225555555522222222|
E---------------------------------|


Interlude
E-----------------------------------------------------------------|
B-----------------------------------------------------------------|
G-----------------------------------------------------------------|
D-------------------------77777777------------------------77--77--|
A-7777777744444444222222225555555577777777444444442222222255--55--|
E-555555552222222200000000--------555555552222222200000000--------|

E---------------------------------|
B---------------------------------|
G---------------------------------| X2
D-------------------------77777777|
A-77777777444444442222222255555555|
E-555555552222222200000000--------|


'Cause everybody pays...'
E-----------------------------------------------------------------|
B-----------------------------------------------------------------|
G-----------------------------------------------------------------| X2
D---------------------------------77777777444444447777777744444444|
A-4~~-22~-77~-22224~~-22~-77~-999955555555222222225555555522222222|
E-2~~-00~-55~-00002~~-00~-55~-7777--------------------------------|

'You're not even sleeping...'
E---------------------------------|
B---------------------------------|
G---------------------------------|
D-7777777744444

Aware chords – Front Porch Step V2

 Standard Tuning 

Capo 3rd Fret 

 D# : xx0032   C : 030210    Amin : 002210    Emin : 022000   D : XX0232  G :300033    G/F : 200033  

I saw a kid on youtube play this song this way and I liked it so I figured I would 
tab it out.  Great Song! 

Not sure what the name of the chord is but for this song I call it a D# (either 
way its tabbed out for you above).  Also, playing a hammer on every other beat on 
the C during the intro and verses sounds good.  The Amin can be played as above or 
by removing your index finger as well.  Ex. 002200 either way sounds good to me.  
 so if you see any mistakes please comment and I will fix it.   

Strumming patter if you want is DD UDU DD 


Intro  D#  /  C D# 

Well I see you standing there and your eyes are unaware that 
           C 
I've been staring at them all night wishing the brain behind them cared about
     Amin 
the way you make me feel or how your smile makes me nervous or 
         D 
how the fact how you exist makes me feel like I have a purpose
 
             D# 
I'm sick of lying in your bed while we're both laying down you say 
     C 
you want me for a friend I hope you know I hate that sound
       Amin 
but I will bite my tongue because hate when your pissed off but you should
 D C 
know that I need your touch like falling rain on thirsty crops but…

 C D G G/F Emin C 
Damn you stupid girl why won't you drop your guard
             D G G/F Emin C 
The space between our lips is bound to break my ever aching heart
       D G G/F Emin C 
And I am sure that you will never find a man that is ever gonna love you more
              D 
So why won't you love me?

        D# 
Well I hate your cigarettes and the men that you go see because 
     C 
one is killing you while the other is killing me but 
   Amin 
I know you'll stay stubborn cause you'll know I'll stay alone cause 
         D  
we both know inside your grasp is the only place I feel at home

       D# 
Now I sit with my guitar write you one more stupid song 
   C 
I hate the way you make me feel like I'm doing something wrong 
     Amin 
but you'll just have to deal with all the things that I have mentioned and
      D C 
I'll hope this song is golden like the point of my intentions but…  

 C D G G/F Emin C 
Damn you stupid girl why won't you drop your guard
             D G G/F Emin C 
The space between our lips is bound to break my ever aching heart
      D G G/F Emin C 
And I am sure that you will never find a man that is ever gonna love you more
              D 
So why won't you love me?

 D#  /  C D# 
But now the beat is done and there is nothing left to say pray to the 
     C 
god you don't believe in that you'll love me some day 
 Amin 
so when the years go by and you forget how much I cared 
 D C 
put in this song and sing along so your heart will be aware

 C D G G/F Emin C    
It's like giving up on everything that you believe
             D</s

Father Tabs by The Front Bottoms V2

 Intro
E-----------------------------------------------------------------|
B-----------------------------------------------------------------|
G-----------------------------------------------------------------|
D-----------------333333333333333355555555555555553333333333333333|
A-3333333333333333111111111111111133333333333333331111111111111111|
E-1111111111111111------------------------------------------------|

'I have this dream...'
E-----------------------------------------------------------------|
B-----------------------------------------------------------------|
G-----------------------------------------------------------------| X2
D-----------------333333333333333355555555555555553333333333333333|
A-3333333333333333111111111111111133333333333333331111111111111111|
E-1111111111111111------------------------------------------------|


'You look good tonight girlfriend...'
E---------------------------------------------------------------------------------|
B---------------------------------------------------------------------------------|
G---------------------------------------------------------------------------------|
D-777777775555555533333333333333337777777755555555--------333333335555555555555555|
A-55555555333333331111111111111111555555553333333333333333111111113333333333333333|
E-------------------------------------------------11111111------------------------|


'You were high school...'
E--------------------------------|
B--------------------------------|
G--------------------------------| X4
D-3~-35~-57~-7~~~--------33333333|
A-1~-13~-35~-5~~~3333333311111111|
E----------------11111111--------|


'A long long time ago...'
E-----------------------------------------------------------------|
B-----------------------------------------------------------------|
G-----------------------------------------------------------------| X2
D-----------------333333333333333355555555555555553333333333333333|
A-3333333333333333111111111111111133333333333333331111111111111111|
E-1111111111111111------------------------------------------------|


'You look good tonight girlfriend...'
E---------------------------------------------------------------------------------|
B---------------------------------------------------------------------------------|
G---------------------------------------------------------------------------------|
D-777777775555555533333333333333337777777755555555--------333333335555555555555555|
A-55555555333333331111111111111111555555553333333333333333111111113333333333333333|
E-------------------------------------------------11111111------------------------|


'You were high school...'
E--------------------------------|
B--------------------------------|
G--------------------------------| X4
D-3~-35~-57~-7~~~--------33333333|
A-1~-13~-35~-5~~~3333333311111111|
E----------------11111111--------|


'More like real life...'
E---------------------------------|
B---------------------------------|
G---------------------------------| X2
D-5555555555555555--------33333333|
A-33333333333333333333333311111111|
E-----------------11111111--------|

E-----------------|
B-----------------|
G-----------------|
D-5555555555555555|
A-3333333333333333|
E-----------------|


'You were high school...'
E--------------------------------|
B--------------------------------|
G--------------------------------| X4
D-3~-35~-57~-7~~~--------33333333|
A-1~-13~-35~-5~~~3333333311111111|
E----------------11111111--------|

E--------------------------------|
B--------------------------------|
G--------------------------------|
D--------------------------------|
A-3~~~~~~~~~~~~~~~~~~~~~~~~~~~~~~|
E-1~~~~~~~~~~~~~~~~~~~~~~~~~~~~~~|

The Beers Tabs by The Front Bottoms V2

 Intro
E---------------------------------|
B---------------------------------|
G---------------------------------| X2
D-------------------------44444444|
A-44444444777777772222222222222222|
E-222222225555555500000000--------|

'There's beer in coffee mugs...'
E-------------------------------------------------|
B-------------------------------------------------|
G-------------------------------------------------| X3
D-------------------------------------------------|
A-111111111111111111111111111111117777777799999999|
E-9-9-9-9-9-9-9-9-0-0-0-0-0-0-0-0-5555555577777777|

E-------------------------------------------------|
B-------------------------------------------------|
G-------------------------------------------------|
D-------------------------------------------------|
A-111111111111111111111111111111117777777799997777|
E-9-9-9-9-9-9-9-9-0-0-0-0-0-0-0-0-5555555577775555|

E-----------------|
B-----------------|
G-----------------|
D-----------------|
A-4-4-4-4-4-4-4-4-|
E-2-2-2-2-2-2-2-2-|


'And I will remember that summer...'
E---------------------------------|
B---------------------------------|
G---------------------------------| X2
D---------------------------------|
A-7-7-7-7-9-9-9-9-2-2-2-2-6-6-6-6-|
E-5-5-5-5-7-7-7-7-0-0-0-0-4-4-4-4-|

E-----------------|
B-----------------|
G-----------------|
D-----------------|
A-7-7-7-7-9-9-9-9-|
E-5-5-5-5-7-7-7-7-|


Interlude
E---------------------------------|
B---------------------------------|
G---------------------------------| X2
D-------------------------44444444|
A-44444444777777772222222222222222|
E-222222225555555500000000--------|

'It's the cops are coming in...'
E-------------------------------------------------|
B-------------------------------------------------|
G-------------------------------------------------| X3
D-------------------------------------------------|
A-111111111111111111111111111111117777777799999999|
E-9-9-9-9-9-9-9-9-0-0-0-0-0-0-0-0-5555555577777777|

E-------------------------------------------------|
B-------------------------------------------------|
G-------------------------------------------------|
D-------------------------------------------------|
A-111111111111111111111111111111117777777799997777|
E-9-9-9-9-9-9-9-9-0-0-0-0-0-0-0-0-5555555577775555|

E-----------------|
B-----------------|
G-----------------|
D-----------------|
A-4-4-4-4-4-4-4-4-|
E-2-2-2-2-2-2-2-2-|


'And I will remember that summer...'
E---------------------------------|
B---------------------------------|
G---------------------------------| X2
D---------------------------------|
A-7-7-7-7-9-9-9-9-2-2-2-2-6-6-6-6-|
E-5-5-5-5-7-7-7-7-0-0-0-0-4-4-4-4-|

E-----------------|
B-----------------|
G-----------------|
D-----------------|
A-7-7-7-7-9-9-9-9-|
E-5-5-5-5-7-7-7-7-|

E-----------------|
B-----------------|
G-----------------|
D-----------------|
A-2-2-2-2-2-2-2-2-|
E-0-0-0-0-0-0-0-0-|


Bridge
E---------------------------------|
B---------------------------------|
G---------------------------------| X2
D---------------------------------|
A-77777777999999992222222222222222|
E-55555555777777770000000000000000|

'It's an aerial view from your house to my room...'
E---------------------------------|
B---------------------------------|
G---------------------------------| X4
D---------------------------------|
A-77777777999999992222222222222222|
E-55555555777777770000000000000000|

'As the summer I was taking steroids...'
E---------------------------------|
B---------------------------------|
G---------------------------------| X4
D---------------------------------|
A-444~----777~----222~----222~----|
E-222~----555~----000~----000~----|

E-----------------|
B-----------------|
G-----------------|
D-----------------|
A-4~~~~~~~~~~~~~~~|
E-2~~~~~~~~~~~~~~~|