Tag: fry

1979 intro Tabs – Freedom Fry

  I've ever done and I was just wondering if I did it correctly, so please give some
feedback. It's only the first few lines so that's why I'm just doing it as an intro.


||TUNING : Standard (EADGBE)||



E|------2------2------2------3-|
B|-----------------------------|
G|----0------0------0------0---|
D|-----------------------------|
A|-----------------------------|
E|-3------3------3------3------|

E|-----------------------------|
B|------3------3------3------1-|
G|----0------0------0------0---|
D|-----------------------------|
A|----------------------3------|
E|-3------3------3-------------|

E|-----------------------------|
B|------1------1------1------0-|
G|----0------0------0------0---|
D|-----------------------------|
A|-3------3------3------3------|
E|-----------------------------|

E|-----------------------------|
B|------0------0------0------0-|
G|----0------0------0------0---|
D|-----------------------------|
A|-3------3------3-------------|
E|----------------------3------|

PLEASE GIVE FEEDBACK :)

Home chords – Freedom Fry

 HOME
Written by Freedom Fry (Bruce Driscoll & Marie Seyrat)

Intro:
 G  -  F  -  Am Am  -  G  -  C C  -  G  -  Dm Dm  -  C  -  G G F Am Am G C 
    Here’s another day in the city that we call home,
 C C G Dm 
Palm trees in the sky,
 Dm Dm C G 
In the city that we call home,

 G F Am Am G C 
     The sun is all around in the city that we love,
 C C G Dm 
Live fast till we die,
 Dm Dm C G 
In the city that we love,

Chorus:
 F Dm 
Famous or we’ll die trying,
 Am G 
Everybody ends up in California,
 F Dm 
Looking for a good time,
 Am Bb 
In LA the sunshine will always warm you,
 F Dm 
Drive me through the hills now,
 Am G 
101 will take you where you want to,
 F Dm 
Film me on my good side
 Am Bb 
In LA the sunshine will always want you,

Verse 2 (same chords as verse 1):
Underneath the sign, looking for a place to call your own,
Stars on the ground,
Looking for a place to call your own

Find another name, play the game, go where you wanna go,
Lights in your eyes,
In the city that we call home,

Chorus

Earthquake chords – Freedom Fry

 Earthquake
Written by Freedom Fry (Bruce Driscoll & Marie Seyrat)

Verse:

 Dm 
First verse,
You lifted me off the curse 
 Dm 
Too many times I had my bubble burst
             Em 
And now you turned me up,
You turned me on,
You turned me in,  
               Dm 
You turned me round, 
 Dm 
Next phase,
Caught in another maze,
 Dm 
Too many ways to end up in the same place,
              Em 
And when you built me up,
You built me strong,
                               Dm 
You built me then you tore me down,

Chorus:

 Am C 
Ahhh, I feel you like an earthquake,
 Fmaj7 
Shake shake, Shake shake, shika, shake shake 
 Am C 
Ahhh, I guess it was a mistake,
 Fmaj7 
An ache, a misstep into heartbreak,
 Am C 
Aah and what if it was all fate,
 Fmaj7 
All fake, Feel your world turn as it vibrates,
 Am C 
Ahhh, Got caught up in your earthquake,
 Fmaj7 
Now it's too late, shika shika shake shake shake

Verse 2:
 Dm 
Second Verse,
It had to get even worse,
 Dm 
Left me in the desert with a thirst,
             Em 
And now you turned me up,
You turned me on,
You turned me in, 
               Dm  
You turned me down,
 Dm 
Next step,
Remembering to forget,
 Dm 
All  the words and feelings, you can bet,
                 Em 
'cause when you built me up,
You built me strong,
                               Dm 
You built me then you tore me down,

Chorus

Solo

 G  -  G  -  Em  -  Fmaj7 G  -  G  -  Em  -  Fmaj7 G  -  G  -  Em  -  Fmaj7 G  -  G  -  Em  -  Fmaj7 

Chorus Out

Rolling Down Tabs – Freedom Fry

 -------------------------------------------------------------------------------
                             Rolling Down - Freedom Fry
-------------------------------------------------------------------------------
Tabbed by: A. Cross
Soft Acoustic Fingerpicking

Tuning: Standard. To play along with recording capo at 3rd Fret.

Intro:
e|---------------------------------------------------------------------------|
B|---0---------0--------0--------0---------0---------0--------0-------0------|
G|--------0---------0--------0--------0---------0---------0-------0--------0-|
D|-----0---------0--------0--------0---------0---------0--------0-------0----|
A|-7---------5--------7--------5---------7---------5--------7-------5--------|
E|---------------------------------------------------------------------------|

Verse:
"The world's yours when you turn eighteen and you feel like..."
e|---------------------------------------------------------------------------|
B|---0---------0--------0--------0---------0---------0--------0-------0------|
G|--------0---------0--------0--------0---------0---------0-------0--------0-|
D|-----0---------0--------0--------0---------0---------0--------0-------0----|
A|-7---------5--------7--------5---------7---------5--------7-------5--------|
E|---------------------------------------------------------------------------|

"Which way will you go? Which way will you go?"
e|---------------------------------------------------------------------------|
B|---1---------1--------1--------1---------1---------1--------1-------1------|
G|--------0---------0--------2--------2---------0----------0-------2-------2-|
D|-----2-------- 0--------2--------2---------2---------0--------2-------2----|
A|-3--------2---------0--------0---------3---------2--------0-------0--------|
E|---------------------------------------------------------------------------|

Chorus:
"'cause it's a great big world and you know it"
e|---------------------------------------------------------------------------|
B|---0--------0---------0--------0---------0---------0-----------------------|
G|--------0--------0---------0--------0---------0----------0-----------------|
D|-----0--------0---------2--------2---------2---------2---------------------|
A|--------------------3--------3---------3--------3--------------------------|
E|-3--------3----------------------------------------------------------------|

"it's a great big world and you know it"
e|---------------------------------------------------------------------------|
B|---0--------0---------0--------0-------------------------------------------|
G|------- 0--------0---------0--------0--------------------------------------|
D|-----0--------2---------2--------2-----------------------------------------|
A|--------------------3--------3---------------------------------------------|
E|-3--------0----------------------------------------------------------------|

"it's a great big world and you're rolling down"
e|---------------------------------------------------------------------------|
B|---0--------0---------2--------2---------0-------0-------0--------0--------|
G|------- 0--------0---------0--------0---------0-------0--------0--------0--|
D|-----0--------2---------2--------2---------2-------2-------2--------0------|
A|--------------------0--------0---------------------------------------------|
E|-3--------0----------------------------0-------0-------0-------0-----------|

Bridge:
"Our day has come around, we're out of this town, out of this town"
e|---2--------2--------------------------------------------------------------|
B|--------3--------3---0--------0-------1--------0-------1-------0-----------|
G|-----2--------2----------0--------0--------0-------0-------0-------0-------|
D|-0--------0-----------0--------0--------2--------0-------2-------0---------|
A|------------------------------------3----------------3---------------------|
E|-------------------3--------3----------------3---------------3----

Fry Song chords – Adventure Time Marceline

 A Bm 
Daddy, why did you eat my fries?
       E A 
I bought them, and they were mine.
 A Bm 
But you ate them, yeah, you ate my fries.
 E A 
And I cried, but you didn’t see me cry.
 A Bm 
Daddy, do you even love me?
 D                
Well I wish you'd show it,
 Dm 
Cause I wouldn't know it.
 A 
What kind of dad eats his daughter's fries?
 Bm 
And doesn't look her in the eyes?
 D 
Daddy there were tears there.
 Dm  or  A 
If you saw them would you even care? 

You Make The Sun Fry Tabs by Ty Segall

 Verse - Chords in verse are power chords and played like this (listen to the song to get rhythm):

C-

e|---------------------------------------------------------------------------|
B|---------------------------------------------------------------------------|
G|---------------------------------------------------------------------------|
D|---------------------------------------------------------------------------|
A|----10-10-12-10------------------------------------------------------------|
E|----8--8--8--8-------------------------------------------------------------|


C (8th fret), Bb (6th fret), Ab (4th fret), F (1st fret), Ab (4th fret);

Chorus -

G, F, C (full barred major chords, listen for rhythm)  

Bb, A, Ab, G; (power chords, similar to verse)

Solo - Over Verse Chords


e|---------------------------------------------------------------------------|
B|---------------------------------------------------------------------------|
G|---9-8-9-8-9-8----7b8-7b8-7b8----7b8-7b8-7b8----7b8-7b8--------------------|
D|---------------10-------------10-------------10---------10-----------------|
A|---------------------------------------------------------------------------|
E|---------------------------------------------------------------------------|

e|---------------8-11--11-11b13-11b13-13-8--------8-------8-------8-------8--|
B|----------8-10---------------------------11b13----11b13---11b13---11b13----|
G|------7-9------------------------------------------------------------------|
D|---10----------------------------------------------------------------------|
A|---------------------------------------------------------------------------|
E|---------------------------------------------------------------------------|

e|---------------------------------------------------------------------------|
B|---------------------------------------------------------------------------|
G|---10b11---10b11-10b11-10-8------------------------------------------------|
D|----------------------------10---------------------------------------------|
A|---------------------------------------------------------------------------|
E|---------------------------------------------------------------------------|



etc...