Tag: go

Let Me Go chords – Gary Barlow V4

 First tab so let me know what you think!!  :)

Capo 2

Intro -  C C 
A room full of sadness 
 Am 
A broken heart 
 F 
And only me to blame 
 G 
For every single part 
 C 
No Science or Religion 
 Am 
Could make this whole 
 F 
To be loved, but never loved 
 G 
To have, but never hold 
 Am F C G 
It’s a life alone, and a desperate need 
  Am F 
To be held to be loved so 
 F F C Am G 
This is gonna take a bit of getting used to, but i know what’s right for you 

 C Am Em G 
Fly high and let me go 
 C Am Em G 
That sky will save your soul 
                        C Am F G 
When you pass by then you’ll know 
 F F C Am G 
That this gonna take a bit of getting used to but i know what’s right for you 
             C 
Let me go 

 C 
A head full of madness 
 Am 
And no where safe 
 F G 
When tears aren’t big enough, and love turns into hate 
         Am F C G         
It’s a life alone, and a desperate need 
        Am F C 
To be held to be loved so 
 F Am C Am G 
This gonna take a bit of getting used to but i know what’s right for you 

 C Am Em G 
Fly high and let me go 
 C Am Em G 
That sky will save your soul 
                       C Am F G 
When you pass by then you’ll know 
 F F C Am G 
That this gonna take a bit of getting used to but i know what’s right for you 

 F C 
So let me go life will get better 
 G Am 
Find the love i never gave ya 
 F C F G C 
I know you lie there waiting all night long, so find where you belong 


 C Am Em G   
Fly high and let me go (Let me go) 
 C Am Em G 
That sky will save your soul (Let it save your soul tonight) 
 C Am Em G  
Fly high and let me go (Let me go let me go) 
 C Am Em G 
That sky will save your soul 
 F Am C Am G 
But this gonna take a bit of getting used to but i know what’s right for you 
              C 
Let me go

Go! – Happysad chords

a    d                            a
Go, move your feet ..................
Go, move your soul ..................
a           C           e
In to the ragtag ........
in to the ragtag ........

Intro:
......................................................x3
e|-5------------------------------------------------5-||
b|----5-5-6--5--5--5-5-6--5--6--6-6-8--6--6--6-6-8----||
g|----------------------------------------------------||
d|----------------------------------------------------||
a|----------------------------------------------------||
e|----------------------------------------------------||


"Go..."
.................x2................x2
e|--------3-------|--------3-------||
b|-5--5-5---5-5-5-|-6--6-6---6-6-6-||
g|----------------|----------------||
d|----------------|----------------||
a|----------------|----------------||
e|----------------|----------------||


"In to the..."

e|-----------3----------3-5-||
b|-5--5--5-6----6--6--6-----||
g|--------------------------||
d|--------------------------||
a|--------------------------||
e|--------------------------||


"Hej, hej hej woodstock..." ;P

e|-------------------------------3-|-------------------------------3-||
b|-5-5-5-5-5-5-5-5-5-5-5-5-5-5-5---|-6-6-6-6-6-6-6-6-6-6-6-6-6-6-6---||
g|---------------------------------|---------------------------------||
d|---------------------------------|---------------------------------||
a|---------------------------------|---------------------------------||
e|---------------------------------|---------------------------------||

Poznalem go po czarnym kapeluszu – Dzem chords

Poznalem...                       / E /
wszedl...                         /E H/
Hej...                            /A E/
lecz nie...                       /H A/

Poszedlem...
nie bylem...
Ale ten...
do tego...

Tam...                           / D /
przy...                          /D A/
"Hej...                          /G D/
lecz juz...                      /A G/

Spytalem...
widzial...
"Sluchaj...
powiedzialem...

Spojrzal...                     / E /
i w koncu...                    /E H/
jeszcze...                      /A E/
No i...                         /H A/

Zrobilo...                       /DA/
"Hej...                         /G D/
lecz nie...                     /A D/
"Hej...                         / G /
lecz nie...                     / D /

Poznalem Go po czarnym kapeluszu (tab) – Dzem chords

Wersja uproszczona

Intro (moja wersja)

2 razy
-------------------
-------------------
-------------------
-2-4-2-4/5-4/5--2--
-0-0-0-0-0-0-0--0--
-------------------

za trzecim
---------------------------------
---------------------------------
---------------------------------
-2-4-2-4/5-4/5-4/5-4/5-4/5-------
-0-0-0-0-0-0-0-0-0-0-0-0-0--4-5-7
---------------------------------

A
Poznalem Go.....
  E
..baru
D
Hej...
   A
...Zawolalem...
   E       A
...Lecz....sie

ale w drugiej zwrotce po "robie blad" gra sie D

G
Spytalem....
    D
....dwa....
    C
....pomylilem
    G
....z moim.....

    D             G
....powiedzialem...twarz

itd

podklady pod pierwsze solo F C B F C F
pod drugie, klawiszowe i ostatnia zwrotka G D C G D

Megadeth The Hardest Part Of Letting Go… Sealed With A Kiss lyrics

You’re such a pretty face
Radiant, I saw you across the room
I knew I had to have you
Thus started the chase
I knew I would do anything to take your hand and make you mine

But I learned long ago
If you love someone you have to let it go
Let it go, Let it go
The hardest part of letting go is saying
Goodbye, Goodbye, Goodbye

Fettered away in a makeshift cell
Beneath the venomous moonlight
Why unleash my plan to watch you fail
The one I held so high

Go to sleep my love
And taste my sweet revenge upon your lips
Sealed with a kiss

(Solo – Broderick)

I return to the masquerade ball
And leave the lone figure weeping
Stone by stone immured in the wall
Forever left in safekeeping

Go to sleep my love
And taste my sweet revenge upon your lips
Sealed with a kiss

But I learned long ago
If you love someone you have to let it go
Let it go, Let it go
The hardest part of letting go is saying
Goodbye, Goodbye, Goodbye
(Goodbye)
(Let it go)

More lyrics: http://www.lyricsmode.com/lyrics/m/megadeth/#share

The Hardest Part of Letting Go… Sealed With a Kiss Lyrics 09 – Megadeth

You’re such a pretty face
Radiant, I saw you across the room
I knew I had to have you
Thus started the chase
I knew I would do anything to take your hand and make you mine

But I learned long ago
If you love someone you have to let it go
Let it go, Let it go
The hardest part of letting go is saying
Goodbye, Goodbye, Goodbye

Fettered away in a makeshift cell
Beneath the venomous moonlight
Why unleash my plan to watch you fail
The one I held so high

Go to sleep my love
And taste my sweet revenge upon your lips
Sealed with a kiss

(Solo – Broderick)

I return to the masquerade ball
And leave the lone figure weeping
Stone by stone immured in the wall
Forever left in safekeeping

Go to sleep my love
And taste my sweet revenge upon your lips
Sealed with a kiss

But I learned long ago
If you love someone you have to let it go
Let it go, Let it go
The hardest part of letting go is saying
Goodbye, Goodbye, Goodbye
(Goodbye)
(Let it go)

 

Thanks to Jonny Shaw for the lyrics. Thanks to Daryl Cloran, Brian, Joe Sopchak for correcting the lyrics.